Paper Wings, Rise Against (tablatura)

Autor: krlozZx | 38531 visualizaciones

Intro
Eb|--------------------------------------------------------------------
Bb|--------------------------------------------------------------------
Gb|-9-9-9-9-9-9-9-9--9-9-9-9-13131313--6-6-6-6-6-6-6-6--2-2-2-2-2-2-2-2
Db|-9-9-9-9-9-9-9-9--9-9-9-9-13131313--6-6-6-6-6-6-6-6--2-2-2-2-2-2-2-2 x1
Ab|-7-7-7-7-7-7-7-7--6-6-6-6-11111111--4-4-4-4-4-4-4-4--0-0-0-0-0-0-0-0
Eb|--------------------------------------------------------------------

Eb|-x-x-x-x-x-x-x-x--x-x-x-x-x-x-x-x--x-x-x-x-x-x-x-x--x-x-x-x-x-x-x-x-
Bb|-12--10--9--10-9--12-10--14-14-14--10--9--7--9---7--7--5--9--7----5-
Gb|--------------------------------------------------------------------
Db|-------------------------------------------------------------------- x2
Ab|--------------------------------------------------------------------
Eb|--------------------------------------------------------------------

First Verse
Eb|-x-x-x-x-x-x-x-x--x-x-x-x-x-x-x-x--x-x-x-x-x-x-x-x--x-x-x-x-x-x-x-x-
Bb|--------------------------------------------------------------------
Gb|-6-6--------------4-4-4/6-2-2-2-2--6-6--------------4-4-4/6-2-2-2-2-
Db|-6-6-----2-2-2-2--4-4-4/6-2-2-2-2--6-6-----2-2-2-2--4-4-4/6-2-2-2-2- x1
Ab|-4-4-----2-2-2-2--2-2-2/4-0-0-0-0--4-4-----2-2-2-2--2-2-2/4-0-0-0-0-
Eb|---------0-0-0-0---------------------------0-0-0-0------------------

Eb|-x-x-x-x-x-x-x-x--x-x-x-x-x-x-x-x--x-x-x-x-x-x-x-x------------------
Bb|--------------------------------------------------------------------
Gb|-6-6--------------4-4-4/6-2-2-2-2--6-6------------------------------
Db|-6-6-----2-2-2-2--4-4-4/6-2-2-2-2--6-6-----2-2-2-2------------------ x1
Ab|-4-4-----2-2-2-2--2-2-2/4-0-0-0-0--4-4-----2-2-2-2------------------
Eb|---------0-0-0-0---------------------------0-0-0-0------------------

Pre-Chorus
Eb|--------------------------------------------------------------------
Bb|--------------------------------------------------------------------
Gb|-1616161616161616161616161616161616161616161616161616161616161616---
Db|-1414141413131313141414141313131314141414131313131414141413131313--- x1
Ab|--------------------------------------------------------------------
Eb|--------------------------------------------------------------------

Eb|--------------------------------------------------------------------
Bb|--------------------------------------------------------------------
Gb|-16161616161616161616161616161616161616161616161616~~~~~~~~~~~------
Db|-14141414131313131414141413131313141414141313131314~~~~~~~~~~~------ x1
Ab|--------------------------------------------------------------------
Eb|--------------------------------------------------------------------

Chorus
Eb|-x-x-x-x-x-x-x-x--x-x-x-x-x-x-x-x--x-x-x-x-x-x-x-x--x-x-x-x-x-x-x-x-
Bb|-12--10--9--10-9--12-10--14-14-14--10--9--7--9---7--7--5--9--7----5-
Gb|--------------------------------------------------------------------
Db|-------------------------------------------------------------------- x2
Ab|--------------------------------------------------------------------
Eb|--------------------------------------------------------------------

Second Verse
Eb|-x-x-x-x-x-x-x-x--x-x-x-x-x-x-x-x--x-x-x-x-x-x-x-x--x-x-x-x-x-x-x-x-
Bb|--------------------------------------------------------------------
Gb|-6-6--------------4-4-4/6-2-2-2-2--6-6--------------4-4-4/6-2-2-2-2-
Db|-6-6-----2-2-2-2--4-4-4/6-2-2-2-2--6-6-----2-2-2-2--4-4-4/6-2-2-2-2- x1
Ab|-4-4-----2-2-2-2--2-2-2/4-0-0-0-0--4-4-----2-2-2-2--2-2-2/4-0-0-0-0-
Eb|---------0-0-0-0---------------------------0-0-0-0------------------

Eb|-x-x-x-x-x-x-x-x--x-x-x-x-x-x-x-x--x-x-x-x-x-x-x-x------------------
Bb|--------------------------------------------------------------------
Gb|-6-6--------------4-4-4/6-2-2-2-2--6-6------------------------------
Db|-6-6-----2-2-2-2--4-4-4/6-2-2-2-2--6-6-----2-2-2-2------------------ x1
Ab|-4-4-----2-2-2-2--2-2-2/4-0-0-0-0--4-4-----2-2-2-2------------------
Eb|---------0-0-0-0---------------------------0-0-0-0------------------

Pre-Chorus
Eb|--------------------------------------------------------------------
Bb|--------------------------------------------------------------------
Gb|-1616161616161616161616161616161616161616161616161616161616161616---
Db|-1414141413131313141414141313131314141414131313131414141413131313--- x1
Ab|--------------------------------------------------------------------
Eb|--------------------------------------------------------------------

Eb|--------------------------------------------------------------------
Bb|--------------------------------------------------------------------
Gb|-16161616161616161616161616161616161616161616161616~~~~~~~~~~~------
Db|-14141414131313131414141413131313141414141313131314~~~~~~~~~~~------ x1
Ab|--------------------------------------------------------------------
Eb|--------------------------------------------------------------------

Chorus
Eb|-x-x-x-x-x-x-x-x--x-x-x-x-x-x-x-x--x-x-x-x-x-x-x-x--x-x-x-x-x-x-x-x-
Bb|-12--10--9--10-9--12-10--14-14-14--10--9--7--9---7--7--5--9--7----5-
Gb|--------------------------------------------------------------------
Db|-------------------------------------------------------------------- x2
Ab|--------------------------------------------------------------------
Eb|--------------------------------------------------------------------

Bridge Part I - Guitar 1 (Lead)
Eb|-x-x-x-x-x-x-x-x--x-x-x-x-x-x-x-x--x-x-x-x-x-x-x-x--x-x-x-x-x-x-x-x-
Bb|-5~~~~~~------------------------------------------------------------
Gb|--------------------------------------------------------------------
Db|-------------------------------------------------------------------- x1
Ab|--------------------------------------------------------------------
Eb|--------------------------------------------------------------------

Note:  This is the solo.  As you've noticed, I don't have it.  I'm not very good at figuring out solos, so
I beg one of you other guys to do it.
Eb|--------------------------------------------------------------------
Bb|--------------------------------------------------------------------
Gb|--------------------------------------------------------------------
Db|-------------------------------------------------------------------- x
Ab|--------------------------------------------------------------------
Eb|--------------------------------------------------------------------

Note: This is after the solo.
Eb|-x-x-x-x-x-x-x-x--x-x-x-x-x-x-x-x--x-x-x-x-x-x-x-x--x-x-x-x-x-x-x-x-
Bb|--------------------------------------------------------------------
Gb|-9~~~~~~------------------------------------------------------------
Db|-9~~~~~~------------------------------------------------------------ x1
Ab|-7~~~~~~------------------------------------------------------------
Eb|--------------------------------------------------------------------

Eb|-x-x-x-x-x-x-x-x--x-x-x-x-x-x-x-x--x-x-x-x-x-x-x-x--x-x-x-x-x-x-x-x-
Bb|--------------------------------------------------------------------
Gb|----------------------------------------------------2-2-2-2-2-2-2-2-
Db|----------------------------------------------------2-2-2-2-2-2-2-2- x1
Ab|----------------------------------------------------0-0-0-0-0-0-0-0-
Eb|--------------------------------------------------------------------

Chorus
Eb|--------------------------------------------------------------------
Bb|--------------------------14-14-14----------------------------------
Gb|-9-9-9-9-9-9-9-9--9-9-9-9-----------6-6-6-6-6-6-6-6--2-2-2-2-2-2-2-2
Db|-9-9-9-9-9-9-9-9--9-9-9-9-----------6-6-6-6-6-6-6-6--2-2-2-2-2-2-2-2 x4
Ab|-7-7-7-7-7-7-7-7--6-6-6-6-----------4-4-4-4-4-4-4-4--0-0-0-0-0-0-0-0
Eb|--------------------------------------------------------------------

End On
Eb|--------------------------------------------------------------------
Bb|--------------------------------------------------------------------
Gb|--------------------------------------------------------------------
Db|-2~~~~~~~~~~~~~~---------------------------------------------------- x1
Ab|-2~~~~~~~~~~~~~~----------------------------------------------------
Eb|-0~~~~~~~~~~~~~~----------------------------------------------------

------------------------------------------------------------------------
GUITAR 2 (RHYTHM)
------------------------------------------------------------------------
Intro - Note:  Wait for the Lead guitar to play its riff once.  Then, continue.
Eb|--------------------------------------------------------------------
Bb|--------------------------------------------------------------------
Gb|-9-9-9-9-9-9-9-9--9-9-9-9-13131313--6-6-6-6-6-6-6-6--2-2-2-2-2-2-2-2
Db|-9-9-9-9-9-9-9-9--9-9-9-9-13131313--6-6-6-6-6-6-6-6--2-2-2-2-2-2-2-2 x2
Ab|-7-7-7-7-7-7-7-7--6-6-6-6-11111111--4-4-4-4-4-4-4-4--0-0-0-0-0-0-0-0
Eb|--------------------------------------------------------------------

First Verse - Note:  Wait for the Lead guitar to play its riff twice.  Then, continue.
Eb|--------------------------------------------------------------------
Bb|--------------------------------------------------------------------
Gb|-9-9-9-9-9-9-9-9--9-9-9-9-9-9-9-9--9-9-9-9-9-9-9-9------------------
Db|-x-x-x-x-x-x-x-x--x-x-x-x-x-x-x-x--x-x-x-x-x-x-x-x------------------ x1
Ab|-7-7-7-7-7-7-7-7--7-7-7-7-7-7-7-7--7-7-7-7-7-7-7-7------------------
Eb|--------------------------------------------------------------------

Pre-Chorus
Eb|--------------------------------------------------------------------
Bb|--------------------------------------------------------------------
Gb|-4-4-4-4-4-4-4-4--2-2-2-2-2-2-2-2-----------------------------------
Db|-4-4-4-4-4-4-4-4--2-2-2-2-2-2-2-2----------------------------------- x1
Ab|-2-2-2-2-2-2-2-2--0-0-0-0-0-0-0-0-----------------------------------
Eb|--------------------------------------------------------------------

Eb|--------------------------------------------------------------------
Bb|--------------------------------------------------------------------
Gb|-4-4-4-4-4-4-4-4--2-2-2-2-4-4-4-4-----------------------------------
Db|-4-4-4-4-4-4-4-4--2-2-2-2-4-4-4-4----------------------------------- x1
Ab|-2-2-2-2-2-2-2-2--0-0-0-0-2-2-2-2-----------------------------------
Eb|--------------------------------------------------------------------

Chorus
Eb|--------------------------------------------------------------------
Bb|--------------------------------------------------------------------
Gb|-9-9-9-9-9-9-9-9--9-9-9-9-13131313--6-6-6-6-6-6-6-6--2-2-2-2-2-2-2-2
Db|-9-9-9-9-9-9-9-9--9-9-9-9-13131313--6-6-6-6-6-6-6-6--2-2-2-2-2-2-2-2 x2
Ab|-7-7-7-7-7-7-7-7--6-6-6-6-11111111--4-4-4-4-4-4-4-4--0-0-0-0-0-0-0-0
Eb|--------------------------------------------------------------------

Second Verse - Note:  Wait for the Lead guitar to play its riff twice.  Then, continue.
Eb|--------------------------------------------------------------------
Bb|--------------------------------------------------------------------
Gb|-9-9-9-9-9-9-9-9--9-9-9-9-9-9-9-9--9-9-9-9-9-9-9-9------------------
Db|-x-x-x-x-x-x-x-x--x-x-x-x-x-x-x-x--x-x-x-x-x-x-x-x------------------ x1
Ab|-7-7-7-7-7-7-7-7--7-7-7-7-7-7-7-7--7-7-7-7-7-7-7-7------------------
Eb|--------------------------------------------------------------------

Pre-Chorus
Eb|--------------------------------------------------------------------
Bb|--------------------------------------------------------------------
Gb|-4-4-4-4-4-4-4-4--2-2-2-2-2-2-2-2-----------------------------------
Db|-4-4-4-4-4-4-4-4--2-2-2-2-2-2-2-2----------------------------------- x1
Ab|-2-2-2-2-2-2-2-2--0-0-0-0-0-0-0-0-----------------------------------
Eb|--------------------------------------------------------------------

Eb|--------------------------------------------------------------------
Bb|--------------------------------------------------------------------
Gb|-4-4-4-4-4-4-4-4--2-2-2-2-4-4-4-4-----------------------------------
Db|-4-4-4-4-4-4-4-4--2-2-2-2-4-4-4-4----------------------------------- x1
Ab|-2-2-2-2-2-2-2-2--0-0-0-0-2-2-2-2-----------------------------------
Eb|--------------------------------------------------------------------

Chorus
Eb|--------------------------------------------------------------------
Bb|--------------------------------------------------------------------
Gb|-9-9-9-9-9-9-9-9--9-9-9-9-13131313--6-6-6-6-6-6-6-6--2-2-2-2-2-2-2-2
Db|-9-9-9-9-9-9-9-9--9-9-9-9-13131313--6-6-6-6-6-6-6-6--2-2-2-2-2-2-2-2 x2
Ab|-7-7-7-7-7-7-7-7--6-6-6-6-11111111--4-4-4-4-4-4-4-4--0-0-0-0-0-0-0-0
Eb|--------------------------------------------------------------------

Bridge
Eb|-x-x-x-x-x-x-x-x--x-x-x-x-x-x-x-x--x-x-x-x-x-x-x-x--x-x-x-x-x-x-x-x-
Bb|--------------------------------------------------------------------
Gb|-9~~~~~~------------------------------------------------------------
Db|-9~~~~~~------------------------------------------------------------ x1
Ab|-7~~~~~~------------------------------------------------------------
Eb|--------------------------------------------------------------------

Note:  While the Lead guitar is "ripping" it nicely, you play this.
Eb|--------------------------------------------------------------------
Bb|--------------------------------------------------------------------
Gb|----------4-4-4-4--2-2-2-2--4-4-4-4---------------------------------
Db|-2-2-2-2--4-4-4-4--2-2-2-2--4-4-4-4--------------------------------- x3
Ab|-2-2-2-2--2-2-2-2--0-0-0-0--2-2-2-2---------------------------------
Eb|-0-0-0-0------------------------------------------------------------

Eb|--------------------------------------------------------------------
Bb|--------------------------------------------------------------------
Gb|----------4-4-4-4--2-2-2-2-2-2-2-2--4-4-4-4-4-4-4-4-----------------
Db|-2-2-2-2--4-4-4-4--2-2-2-2-2-2-2-2--4-4-4-4-4-4-4-4----------------- x1
Ab|-2-2-2-2--2-2-2-2--0-0-0-0-0-0-0-0--2-2-2-2-2-2-2-2-----------------
Eb|-0-0-0-0------------------------------------------------------------

Note:  If you didn't notice, this is played acoustically.
Eb|--------------------------------------------------------------------
Bb|--------------------------------------------------------------------
Gb|-9-9-9-9-9-9-9-9--9-9-9-9-13131313--6-6-6-6-6-6-6-6--2-2-2-2-2-2-2-2
Db|-9-9-9-9-9-9-9-9--9-9-9-9-13131313--6-6-6-6-6-6-6-6--2-2-2-2-2-2-2-2 x2
Ab|-7-7-7-7-7-7-7-7--6-6-6-6-11111111--4-4-4-4-4-4-4-4--0-0-0-0-0-0-0-0
Eb|--------------------------------------------------------------------

Chorus
Eb|--------------------------------------------------------------------
Bb|--------------------------------------------------------------------
Gb|-9-9-9-9-9-9-9-9--9-9-9-9-13131313--6-6-6-6-6-6-6-6--2-2-2-2-2-2-2-2
Db|-9-9-9-9-9-9-9-9--9-9-9-9-13131313--6-6-6-6-6-6-6-6--2-2-2-2-2-2-2-2 x4
Ab|-7-7-7-7-7-7-7-7--6-6-6-6-11111111--4-4-4-4-4-4-4-4--0-0-0-0-0-0-0-0
Eb|--------------------------------------------------------------------

End On
Eb|--------------------------------------------------------------------
Bb|--------------------------------------------------------------------
Gb|--------------------------------------------------------------------
Db|-2~~~~~~~~~~~~~~---------------------------------------------------- x1
Ab|-2~~~~~~~~~~~~~~----------------------------------------------------
Eb|-0~~~~~~~~~~~~~~----------------------------------------------------
Calificar esta versión:
Aviso: Este fichero es trabajo propio de su transcriptor y representa su interpretación personal de la canción. El material contenido en esta página es para exclusivo uso privado, por lo que se prohibe su reproducción o retransmisión, así como su uso para fines comerciales.