Give It All, Rise Against (tablatura)

Autor: maggot4life | 37447 visualizaciones

Intro (x2) 
e|---------------|
H|---------------|
G|---------------|
D|-7---3---6---4-|
A|-4---4---4---4-|
E|---------------|    


e|--------------------------------------|
H|--------------------------------------|
G|--------------7777----------7777-9999-|
D|-44--44--44---7777-44--44---7777-9999-|
A|-44--44--44---5555-44--44---5555-7777-|
E|-22--22--22--------22--12-------------|


E|--------------------------------------|
H|--------------------------------------|
G|--------------7777----------7777-9999-|
D|-44--44--44---7777-44--44---7777-9999-|
A|-4422442244---5555-44--44---5555-7777-|
E|-2200220022--------22002200-----------|  


E|--------------------------------------------|
H|--------------------------------------------|
G|--------------------------------------------|
D|----------99999999-111111111111111-77777777-|
A|-77777777-77777777-111111111111111-55555555-|
E|-55555555----------9-9-9-9-9-9-9-9----------|


E|--------------------------------------|
H|--------------------------------------|
G|--------------7777----------7777-9999-|
D|-44--44--44---7777-44--44---7777-9999-|
A|-44--44--44---5555-44--44---5555-7777-|
E|-22--22--22--------22--22-------------|


E|---------------------------------------|
H|---------------------------------------|
G|---------------7777----------7777-9999-|
D|--44--44--44---7777-44--44---7777-9999-|
A|--4422442244---5555-44--44---5555-7777-|
E|--2200220022--------22002200-----------|
PM- xxxxxxxxxx        xxxxxxxx              
  
E|--------------------------------------------|
H|--------------------------------------------|
G|--------------------------------------------|
D|----------99999999-111111111111111-77777777-|
A|-77777777-77777777-111111111111111-55555555-|
E|-55555555----------9-9-9-9-9-9-9-9----------|



E|----|
H|----|
G|----|
D|-7-6|
A|-7-6|
E|-5-4|
                             

E|----------------------|
H|----------------------|
G|------7777------------|
D|-4444-7777-2222-------|
A|-4444-5555-2222-44-33-|
E|-2222------0000-55-44-|
                             


E|----------------------|
H|----------------------|
G|------7777------------|
D|--4444-7777-2222-------|
A|--4444-5555-2222-44-33-|
E|--2222------0000-55-44-|
PM  xxxx xxxx xxxx xx xx



E|----------------------|
H|----------------------|
G|------7777------------|
D|--4444-7777-2222-2-----|
A|--4444-5555-2222-2-----|
E|--2222------0000-0-----|
PM  xxxx xxxx xxxx


E|--------------------------------------------|
H|--------------------------------------------|
G|--------------------------------------------|
D|----------99999999-111111111111111-77777777-|
A|-77777777-77777777-111111111111111-55555555-|
E|-55555555----------9-9-9-9-9-9-9-9----------|

Comentarios del colaborador: STRAIGHT EDGE FOREVER ALCOHOL SUCKS

Calificar esta versión:
Aviso: Este fichero es trabajo propio de su transcriptor y representa su interpretación personal de la canción. El material contenido en esta página es para exclusivo uso privado, por lo que se prohibe su reproducción o retransmisión, así como su uso para fines comerciales.