Dancing For Rain, Rise Against (tablatura)

Autor: feede | 43419 visualizaciones

Band: Rise Against
Song: Dancing For Rain (Intro)
Album: Siren Song of the Counter Culture


E|-2---3-----3-----3-----3---2---2-----2-----2-----2-----2-------|
B|-------5-----5-----5-----5---0---0-----3-----3-----3-----3-----|
G|---------4-----4-----4-------------4-----4-----4-----4-----4-5-|
D|---------------------------------------------------------------|
A|---------------------------------------------------------------|
E|---0-----------------------------------------------------------|

E|---5-----5-----5-----5---3-2-0-2-3-|
B|-----5-----5-----5-----5-----1-1-1-|
G|-2-----2-----2-----2---------0---0-|
D|-----------------------------------|
A|-----------------------------------|
E|-----------------------------------|

Comentarios del colaborador: Si les gusta comente y si no, pues no lo hagan...

Calificar esta versión:
Aviso: Este fichero es trabajo propio de su transcriptor y representa su interpretación personal de la canción. El material contenido en esta página es para exclusivo uso privado, por lo que se prohibe su reproducción o retransmisión, así como su uso para fines comerciales.