Blood-red, White & Blue, Rise Against (tablatura)

Autor: alvaretto | 39949 visualizaciones

Hay algunas versiones de la canción que tienen
una introducción antes de la que conocemos, pero
en éste caso no la colocaré.

INTRO

A|-----------------------------------------|
B|-----------------------------------------|
C|-8-X-X---8-10-10-10-11-11-11-11-11-13-10-| (x4)
X|-8-X-X-1-8-10-10-10-11-11-11-11-11-13-10-|
Y|-6-X-X-1-6-8--8--8--9--9--9--9--9--11-8--|
Z|-----------------------------------------|

A|-----|
B|-----|
C|-6-8-|
X|-6-8-|
Y|-4-6-|
X|-----|

VERSE

A|-----------------------------------------|
B|-----------------------------------------|
C|---6-8-8-8-8-8-8-8-8-8-------------------|
X|-6-6-8-8-8-8-8-8-8-8-8-9-9-9-9-9-9-9-9-9-|
Y|-6-4-6-6-6-6-6-6-6-6-6-9-9-9-9-9-9-9-9-9-|
Z|-4---------------------7-7-7-7-7-7-7-7-7-|

A|---------------------------------------------------|
B|---------------------------------------------------|
C|---6--8-8-8-8-8-8-8-8-8-11-11-11-11-11-11-11-11-11-|
X|-6-6--8-8-8-8-8-8-8-8-8-11-11-11-11-11-11-11-11-11-|
Y|-6-4--6-6-6-6-6-6-6-6-6-9--9--9--9--9--9--9--9--9--|
Z|-4-------------------------------------------------|

CHORUS

A|------------------------------------------|
B|------------------------------------------|
C|------8-8-8-8-8-8-8-8-8-------------------|
X|------8-8-8-8-8-8-8-8-8-9-9-9-9-9-9-9-9-9-|
Y|------6-6-6-6-6-6-6-6-6-9-9-9-9-9-9-9-9-9-|
Z|------------------------7-7-7-7-7-7-7-7-7-|

A|----------------------------------------|
B|----------------------------------------|
C|----------------------6-6-6-6-6-6-6-6-6-| (x4)
X|----4-4-4-4-4-4-4-4-4-6-6-6-6-6-6-6-6-6-|
Y|----4-4-4-4-4-4-4-4-4-4-4-4-4-4-4-4-4-4-|
Z|----2-2-2-2-2-2-2-2-2-------------------|

cuando canta: "would god, bless a murder of the innocents..."

A|------------------------------------------|
B|------------------------------------------|  
C|------------------------------------------|
X|--8-8-9-9-8-8-6-6-8-8-6-6-4-4-6-6---------|
Y|--6-6-7-7-6-6-4-4-6-6-4-4-2-2-4-4---------|
Z|------------------------------------------|

A|------------------------------------------|
B|------------------------------------------|
C|--4-4-4-4-4---6-6-6-6-6-6-----------------|
X|--4-4-4-4-4---6-6-6-6-6-6-----------------|
Y|--2-2-2-2-2---4-4-4-4-4-4-----------------|
Z|------------------------------------------|

SOLO

A|-11-11-11-11-11-11---------------------------------------|
B|-------------------14-12-11-12-12b-11-12-11-9-11-12-11-9-|
C|---------------------------------------------------------|
X|---------------------------------------------------------|
Y|---------------------------------------------------------|
Z|---------------------------------------------------------|

A|------------------------------------------|
B|-------------12-11-9----------------------|
C|--8--10-11------------11----8--6----------|
X|--8--11-11------------11----8--6----------|
Y|------------------------------------------|
Z|------------------------------------------|

A|11-11-11-11-14-11-14-16-14-13-14-16-14-13-14-13----14b-13-11-9|
B|-------------------------------------------------16-----------|
C|--------------------------------------------------------------|
X|--------------------------------------------------------------|
Y|--------------------------------------------------------------|
Z|--------------------------------------------------------------|

A|-------------------------------------------|
B|-11/12/11-9-11-11/12/11-9-11-11/12/11-9-11-|
C|-------------------------------------------|
X|-------------------------------------------|
Y|-------------------------------------------|
Z|-------------------------------------------|

A|----------|
B|----------|
C|-11-6-3-8-|
X|-11-6-3-8-|
Y|----------|
Z|----------|

----------------------------------------------------------------
LYRICS----------------------------------------------------------
----------------------------------------------------------------

 VERSE I
So come test me, so come break me
So come on intoxicate me
With hands ties behind my back I fight
And wait for you to strike-
A new problem, we can't stop them
We're unnumbered and uncautioned
A really cry ring out into the night

 CORO
So pride yourself for what you are
And hold them all to words they can't take back
I've seen the place (it comes) to me in dreams 
Where fires die
But light, still shines for us to see
 
 VERSE II
What did you have to say?
Give me your logic, your definition
The words you twist to justify your position
Of mass tarbation and blind airstrikes
Every problem is solved with fight-
Peace won't be found, 'til we're underground
As long as we live without a sound

 CORO
So pride yourself for what you are
And hold them all to words they can't take back
I've seen the place (it comes) to me in dreams 
Where fires die
But light, still shines for us to see
 
 PRE-SOLO
Would God bless a murder of the innocents?
Would God bless a war based in pride?
Would God bless a money hungry government? No
Would God bless our inneficacy court system?
Would God bless the roadshops we run?
God bless America
God bless America

gracias por consultar!!
Calificar esta versión:
Aviso: Este fichero es trabajo propio de su transcriptor y representa su interpretación personal de la canción. El material contenido en esta página es para exclusivo uso privado, por lo que se prohibe su reproducción o retransmisión, así como su uso para fines comerciales.