Sonámbulo, Richie Valens (acordes)

Autor: Anónimo | 20158 visualizaciones

bbmcsoscsos7fsosfsosmgsos


INTRO: C#-Bbm-F#-G# *Dos veces*

   C# Bbm F#  G#       C# Bbm F#  G#     C#            Bbm
E>--------------------------------------------------------
A>--------------------------------------------------------
D>---------------------------------------------------11-8-
G>-------------------------------------------10---10------
B>-----9--7-9-10-9-7-------9--7-9-10-9-7-9------9---------
e>-7h9-----------------7h9--------------------------------

  F#     G#    C#          Bbm  F# G#
E>------------------------------------------
A>------------------------------------------
D>-11-11-------11---------------------------
G>-------10-10------------------------------
B>-------------------"9-11-------[ESTA PARTE TAMBIEN SE
e>-------------------------13-9"--TOCA EN EL INTRO]


   C# Bbm F#  G#       C# Bbm F#  G#     C#            Bbm
E>--------------------------------------------------------
A>--------------------------------------------------------
D>---------------------------------------------------11-8-
G>-------------------------------------------10---10------
B>-----9--7-9-10-9-7-------9--7-9-10-9-7-9------9---------
e>-7h9-----------------7h9--------------------------------

  F#     G#    C#     F#     C#    C#7
E>-----------------------------------
A>-----------------------------------
D>-11-11-------11-----8-8-8--11------
G>-------10-10-----------------------
B>-----------------------------------
e>-----------------------------------

         F#                 F#m              C#             C#7
E>----------------------------------------------------------
A>----------------------------------------------------------
D>-11-------------------------------------------------------
G>-------------------------------------------------------10-
B>----10h11-11--------------10-10------------9-9---11-9----9
e>---------------13--13-11-9---------13--11-9---------------

         F#                 F#m              C#           G#
E>---------------------------------------------------------
A>---------------------------------------------------------
D>-11------------------------------------------------------
G>---------------------------------------------------------
B>----10h11-11----------------10-10---------9-9--9h12-12-9-
e>-----------------13-11-9-11-------13-11-9----------------


   C# Bbm F#  G#       C# Bbm F#  G#     C#            Bbm
E>--------------------------------------------------------
A>--------------------------------------------------------
D>---------------------------------------------------11-8-
G>-------------------------------------------10---10------
B>-----9--7-9-10-9-7-------9--7-9-10-9-7-9------9---------
e>-7h9-----------------7h9--------------------------------

  F#     G#                   C#
E>--------------------------------
A>--------------------------------
D>-11-11--------------------------
G>-------10-8-8-------------------
B>-----------------9-11-----------
e>----------------------13-9------

Eso es todo. Espero que les haya gustado. Si quieren pueden
agregar algunos deslices para que suene mejor. Ya saben cualquier
duda estoy disponible en mi correo.





Calificar esta versión:
Aviso: Este fichero es trabajo propio de su transcriptor y representa su interpretación personal de la canción. El material contenido en esta página es para exclusivo uso privado, por lo que se prohibe su reproducción o retransmisión, así como su uso para fines comerciales.