Norte, Ricardo Andrade (tablatura)

Autor: Eduardo Master | 24038 visualizaciones



INTRO

                                                             
E--------3h5--------3---------3--------------------------------3------------------------
B--------3-----3----3---------3-----3--------------------------3-----3------------------
G--------------------------0--------------0--------0-----------------------0------------
D-------------------------------------------------------4-----------------------2-------
A---------------------------------------------------------------------------------------
E----------------------------------------------3----------------------------------------

Em v      Esus4 ^     E5 ^    Esus4 v    Em  ^     Em  ^  Esus4 v     Em^


                                                              Tocar Em con el ritmo de toda la canción,
                                                                                      Em       y luego:
E----------------------3--------3-------3-----------3-------3-------------------------------0--
B----------------------3-----3-----3----------------3---3-----------------------------------0--
G-------------------------------------------------------------------------------------------0h2p0h2p0
D--------2--4--5-----------------------------4-------------------2--------------------------2--
A-------------------------------------------------------------------------------------------2--
E------------------------------------3------------------------------------------------------0--

 Tocar G5 con el ritmo de la canción,        
         G5     y luego: (siempre con el ritmo de la canción)
E---------------------3-----3----3-----3----3---------
B---------------------3-----3----3-----3----3---------
G---------------------0-----0----0-----0----0---------                       Se repite 2 veces         
D---------------------0-----0----0-----0----0--------
A---------------------2-----3----3-----0----2--------
E---------------------3-----0----0-----0----3---------

VERSO1

G5                                                         Em               C           
Ella no pensó engañarlo, siempre quiso demostrarle que sin el no podría vivir 
G5                                                     Em                 C         
se agregaban muchos años, juntos muy acostumbrados a creer que todo iba bien 
  G5                       Em          C                 G5
pero un día sin que se imaginaran, más difícil se hizo vivir, 
     Em                C
Y buscaron respuesta al problema.

PUENTE1:           
        G5^               
Hay otro lugar 
        Em^
de oportunidad 
       C^
para allá me iré 
      D  Dsus4           G5 
Y pronto vendré por ti .

VERSO2
G5                                                               Em               C 
No pasaron dos semanas y el pronto encontró un trabajo y todo estaba bien decía un papel 
G5                                                            Em                C
Junto al cual ya le mandaba lo primero que ganaba y ella se sintió orgullosa de el 
G5                        Em          C             G5
Y siguieron pasando los años y el dinero llegaba puntual
      Em              C
Pero también pasaba otra cosa:


PUENTE2: 
        G5 ^               
Con el tiempo se
      Em ^
Se acabó el amor 
       C ^
Sola se sintió 
      D  Dsus4            
A otro conoció
      G5
Y esto le escribió

CORO:
        G5
Cuantas noches llore, 
         Em
recordando tu voz 
          C                      
quien enciende el amor 
     D
sino estas 
         G5
y aunque el no es igual
     Em
me ha llenado de paz
         C
y aunque no lo creas 
          D                                 
aun me siento tan mal, 
       G5
disculpa.


SOLO: G5  Ah G5 Ah G5  Ah G5 Ah Em C G5 Ah G5 Ah Em C G5 Ah G5 
Ah: 'Acorde hechizo' 
o mejor dicho una secuencia de acordes hechizos:
E---3-----3-----3-----3--------
B---3-----3-----3-----3------
G---0-----0-----0-----0---------
D---0-----0-----0-----0---------
A---3-----2-----3-----2----------
E---0-----0-----0-----0-----------

VERSO3:
G5 ^                     G5 ^                        Em                    C
Solo queda resignarse nadie aquí tiene la culpa solo sucedió y algo lo forzó
G5 ^                           G5 ^                              Em                      C
Puede ser que sea el sistema y a tal grado sea la fuerza de la situación la que afecto al amor 
G5                            Em       C                    G5
Porque si el no se hubiera marchado y si aquí se pudiera vivir 
Em                        C
todo esto no hubiera pasado.

PUENTE3:
          G5 ^
No son los únicos 
       Em ^
a mí me paso 
       C ^
sola se sintió, 		
         D  Dsus4
a otro conoció 
            G5
y esto le escribió:

CORO:
        G5
Cuantas noches llore, 
         Em
recordando tu voz 
          C                      
quien enciende el amor 
      D
sino estas 
         G5
y aunque el no es igual
        Em
me ha llenado de paz
           C
y aunque no lo creas 
         D                                 
aun me siento tan mal, 
 
        G5
Tantas noches llore, 
         Em
recordando tu voz 
              C                      
quien enciende este amor 
     D
sino estas 
          G5
y aunque el no es igual
       Em
me ha llenado de paz
           C
y aunque no lo creas 
         D                                 
aun me siento tan mal, 
       G5
disculpa.

FINAL:
G5 C9 G5 C9 G5 C9 G5

^: Rasgueo del acorde hacia abajo.
v: Rasgueo del acorde hacia arriba

El Ah Se puede sustituir por un C9 también

Acordes:

Cuerdas:   6 5 4 3 2 1
           E A D G B E
Em:        0 2 2 0 0 0
G5         3 2 0 0 3 3
D:         0 0 0 2 3 2
Dsus4:     0 0 0 2 3 3
C:         3 3 2 0 1 0
Esus4:     0 2 2 2 0 0
E5:        0 2 2 4 0 0





Comentarios del colaborador: Lacuerda.com

Calificar esta versión:
Aviso: Este fichero es trabajo propio de su transcriptor y representa su interpretación personal de la canción. El material contenido en esta página es para exclusivo uso privado, por lo que se prohibe su reproducción o retransmisión, así como su uso para fines comerciales.