Gargoyles, Angels Of Darkness, Rhapsody Of Fire (tablatura)

Autor: iaradavo | 37364 visualizaciones



angeli di pietra mistica
(guitarra acustica)

|--------------------------------------------------------------|
|-0h1---0---------------------------------------0h1----0-1/3---|
|-----2-------------0---0---0---0---0---0---0--------2---------|
|-----------------4---4---4---4---4---4---4--------------------|
|--------------------------------------------------------------|
|----------0---------------------------------------------------|

|--------------------------------------------------------------|
|-1--0---------------------------0-----------0-----------------|
|------------0---0---0---0---0-------0---0-------0---0---------|
|----------4---4---4---4---4---4---4---4---4---4---4-----------|
|--------------------------------------------------------------|
|-------0-----------------------------------------------0------|

|-2h3h2-0-2------------0-----------0--0--0--0--0--0--0--0---|
|------------3-1-0------0-----------0--0--0--0--0--0--0--0--|
|-------------------2----2/4---------4--4--4--4--4--4--2--0-|
|-----------------------------------------------------------|
|-----------------------------------------------------------|
|------------------------------0----------------------------|

|-0--0--0--0--0--0--0--0--0-------0------------|
|--0--0--0--0--0--0--0---0--0-----0------------|
|--------------------------------------0-------|
|----4--2--0-----------------------------2-----|
|-------------3--2--0--------------------------|
|----------------------3---2---0-----------0---|

es un rasgeo asia arriva y abajo
|-0-0-0-0-0-0-0-0-0-0-0--0--0------------0-----------------|
|-1-0-1-0-1-0-1-0-1-0-1--0--0----------1---3h1h3h1h0-------|
|-2-2-2-2-2-2-2-2-2-2-2--2--0------0h2---------------0h2h0-|
|-2-2-2-2-2-2-2-2-2-2-2--2--2----3-------------------------|
|-0-0-0-0-0-0-0-0-0-0-0--0--2------------------------------|
|-0-0-0-0-0-0-0-0-0-0-0--0--0------------------------------|

|-----------------------------------0----0---0---0---0-----|
|-----------0h1-3-1--0h1h0-----------------0---0---0---0---|
|--------------------------2-0-2/4-----------4---4---4---4-|
|----------------------------------------------------------|
|--3-2h3h2-------------------------------------------------|
|-----------0--------------------------0-------------------|

|-0-------0------0---0---0---0---0---0-----------0---------|
|---0---0------------0---0---0---0---0----------------0----|
|-----4------4/5-----4---4---4---4---4------0----0----0----|
|-------------------------------------------4----4---------|
|----------------------------------------------------------|
|----------------------------------------0-----0----0------|

|---------------------------------------------0--------------|
|------------0---------------------------0---0----0----------|
|----------0---0--------------------0---0---0----0---0-------|
|--------4-------4-------------2---2---2--------2---2--------|
|------2------------2---------2---2----------------2---------|
|----0----------------3-2----0-------------------------3-2-0-|

|----------------------------------------------------7--------|
|-------------5---5/7h8-7/5---------------------7---7---------|
|--------5---5--------------7-5-4----------8---8---8----------|
|---7---7---7-------------------------9---9---9---------------|
|--7---7-----------------------------9---9--------------------|
|-5---------------------------------7-------------------------|

|-7/9-9-11-7/9-11/12----------------------------------12---|
|---------------------------------0-----------------12-----|
|----------------------------0---0----0--0--------12-------|
|-----------------------4---4---4----4--4--4---------------|
|----------------------2---2--------2----------------------|
|---------------------0----------------------0-------------|
en el 12 son armonicos

|----0--0--0--0--0---0---0---0--0--0--0---0----0--0--0--0--0--0|
|---0--0--0--0----------0---0--0--0-----------0--0--0--0-------|
|-----4--2--0--------------4--2--4---5---4------4--2--0--------|
|--2-----------1---4---2---------------------2-----------1--4--|
|--------------------------------------------------------------|
|--------------------------------------------------------------|

|----0--0--0--0--0--0--|todo eso |--7--|y empieza la 
|---0--0--0--0--3--1---|se repite|--7--|guitarra electrica
|-----4--2--4----------|y termina|--8--|
|--2-------------------|asi      |--9--|
|----------------------|         |--9--|
|----------------------|         |--7--|





Calificar esta versión:
Aviso: Este fichero es trabajo propio de su transcriptor y representa su interpretación personal de la canción. El material contenido en esta página es para exclusivo uso privado, por lo que se prohibe su reproducción o retransmisión, así como su uso para fines comerciales.