Te Veo Y No Siento, Rey Gordiflón (tablatura)

Autor: lacj95 | 30006 visualizaciones

Viene el bajo y después sigue esto
                                                      _
e -3-2----0-2-3-2---0-0-2-2-0-0-2-2-0-0-2-2-3-3-0-    |
b -3-2----0-2-3-2---0-0-2-2-0-0-2-2-0-0-2-2-3-3-0-    |
g ------------------------------------------------    |
d ------------------------------------------------    |
a ------------------------------------------------    |
e ------------------------------------------------    |
                                                      |-x2
e 0-0-2-2-0-0-2-2-0-0-2-2-3-3-                        |
b 0-0-2-2-0-0-2-2-0-0-2-2-3-3-                        |
g ----------------------------                        |
d ----------------------------                        |
a ----------------------------                        |
e ----------------------------                       _|



Esta es la trompeta por si la quieren tocar en la guitarra
a mi parecer es mejor tocar los acordes pero por si la quieren


   D5         E5       F#5          G5
e -10-9-5-0---10-9-5---7-5---5-0-5-7-5-
b -------------------------------------
g -------------------------------------  x 2
d -------------------------------------
a -------------------------------------
e -------------------------------------

D5                  E5           F#5
 las mentiras son parte de tu historia
         G5
 tu version de la verdad
D5            E5
 todo en tu mundo
              F#5 G5
 parece tan subreal

B5         D5
 me llamas todo el tiempo
   G5*
 solo buscas una razon, para sentirte mejor
B5       D5          G5
 te kema mi silencioooo

G5*            A5                    B5
 te veo y no siento que me siga afectando
                  F#5*
 que me siga importando tu corazon
G5*             A5                 B5
 te veo y no siento yo seguire bailando
                   F#5*         G5*
 sobre la tumba de tu corazooooooooouon


e -3-2----0-2-3-2---0-0-2-2-0-0-2-2-0-0-2-2-3-3-0-     |
b -3-2----0-2-3-2---0-0-2-2-0-0-2-2-0-0-2-2-3-3-0-     |
g ------------------------------------------------     |
d ------------------------------------------------     |
a ------------------------------------------------     |
e ------------------------------------------------     |
                                                       |-x2
e 0-0-2-2-0-0-2-2-0-0-2-2-3-3-                         |
b 0-0-2-2-0-0-2-2-0-0-2-2-3-3-                         |
g ----------------------------                         |
d ----------------------------                         |
a ----------------------------                         |
e ----------------------------                        _|

D5           E5        F#5            G5
 no me has dejado nada que pueda extrañar
D5     E5                F#5
 y mis ojos ya no te recuerdan mas
    G5
 no te recuerdan mas

B5         D5
 me llamas todo el tiempo
   G5*
 solo buscas una razon, para sentirte mejor
B5       D5          G5
 te kema mi silencioooo

G5*            A5                    B5
 te veo y no siento que me siga afectando
                  F#5*
 que me siga importando tu corazon
G5*             A5                 B5
 te veo y no siento yo seguire bailando
                   F#5*         G5*
 sobre la tumba de tu corazooooooooouon



e ---------2-------------2-------------2-------------
b ---------2-------------2-------------2-------------
g ---------------------------------------------------
d --------------------------------------------------
a ---------------------------------------------------
e -2-2-2-2---2-2-3-3-3-3---2-2-5-5-5-5---2-2-7-7-7-7--


e ---------------------5-5-5-5-3-2---------5-5-5-5-3-2-2-2-2-
b ---------------------5-5-5-5-3-2---------5-5-5-5-3-2-2-2-2--
g -----------------------------------------------------------
d ----------------------------------------------------------
a ---------------------------------------------------------
e -7-7-5-5-3-3-2-2-2-2-------------3-3-3-3-------------------


G5*            A5                    B5
 te veo y no siento que me siga afectando
                  F#5*
 que me siga importando tu corazon
G5*             A5                 B5
 te veo y no siento yo seguire bailando
                   F#5*         G5*
 sobre la tumba de tu corazooooooooouon


G5*            A5                    B5
 te veo y no siento que me siga afectando
                  F#5*
 que me siga importando tu corazon
G5*             A5                 B5
 te veo y no siento yo seguire bailando
                   F#5*         G5*
 sobre la tumba de tu corazooooooooouon



Acordes
    D5   E5    F#5    G5    B5   G5*     A5    F#5*
e|--X--|--X--|--X--|--X--|--X--|--X---|--X---|--X---|
B|--X--|--X--|--X--|--X--|--X--|--X---|--X---|--X---|
G|--7--|--9--|--11-|--12-|--4--|--X---|--X---|--X---|
D|--7--|--9--|--11-|--12-|--4--|--5---|--7---|--4---|
A|--5--|--7--|--09-|--10-|--2--|--5---|--7---|--4---|
E|--X--|--x--|--X--|--X--|--x--|--3---|--5---|--2---|
Calificar esta versión:
Aviso: Este fichero es trabajo propio de su transcriptor y representa su interpretación personal de la canción. El material contenido en esta página es para exclusivo uso privado, por lo que se prohibe su reproducción o retransmisión, así como su uso para fines comerciales.