Sabor A Mi, Rey Gordiflón (tablatura)

Autor: lacj95 | 17560 visualizaciones

INTRO:
E|--------------------------------|------------------------------|
B|-----6--------------------------|------------------------------|
G|-7-8---8--7-5-7-0--7-7-7---7-5-4|-5-7-8-7--5-4-5----5-5-5--3-2-|
D|--------------------------------|----------------3-------------|
A|--------------------------------|------------------------------|
E|--------------------------------|------------------------------|

E|---------------|---------------------------|
B|---------------|---------------------------|
G|-----5---------|--------------66666666666--|
D|-7-8---8--7-8--|-5-7-8-7-5-3--66666666666--|
A|---------------|--------------44444444444--|
E|---------------|---------------------------|

INTRO: G#5    C#5    G#5    A#5 G#5

E|-10-11-13-11--979---9-7-9-|-9-10-11-10-9----9----9----9-|
B|------------------8-------|--------------11--------12---|
G|--------------------------|-------------------10--------|
D|--------------------------|-----------------------------|
A|--------------------------|-----------------------------|
E|--------------------------|-----------------------------|

C#5    D#5    F#5   G#5  C#5
E|-------9-------------|-----------------------10-------|
B|-10-11---11--10-8-11-|-8-10-11-10-8----10----------11-|
G|---------------------|--------------10----10----10----|
D|---------------------|--------------------------------|
A|---------------------|--------------------------------|
E|---------------------|--------------------------------|

G#5      C#5      G#5      A#5       G#5
Tanto tiempo disfrutamos de este amor,
         C#5      G#5     A#5        G#5
nuestras almas se acercaron tanto así,
C#5                 D#5
que yo guardo tu sabor,
F#5
pero tú llevas también,
G#5         C#5
sabor a mí.


G#5      C#5      G#5     A#5       G#5
Si negaras mi presencia en tu vivir
         C#5      G#5     A#5        G#5
bastaría con abrazarte y conversar
C#5                 D#5*
tanta vida yo te di
F#5
que por fuerza llevas tu,
G#5         C#5
sabor a mí.

D#5*          C#5*
No pretendo, ser tu dueño
F#5*         G#5*         C#5*
no soy nada yo no tengo vanidad,
A#5*          G#5*
de mi vida, doy lo bueno
F#5*         G#5*        C#5*
soy tan pobre qué otra cosa puedo dar.


G#5*     C#5*     G#5*     A#5*      G#5*
Pasarán más de mil años muchos más
         C#5*     G#5*    A#5*       G#5*
yo no sé si tenga amor la eternidad
C#5*                D#5*
pero allá tal como aquí
F#5*
en tu boca llevarás
G#5*        C#5*
sabor a mí.


INTRO: G#5    C#5    G#5    A#5 G#5

E|-10-11-13-11--979---9-7-9-|-9-10-11-10-9----9----9----9-|
B|------------------8-------|--------------11--------12---|
G|--------------------------|-------------------10--------|
D|--------------------------|-----------------------------|
A|--------------------------|-----------------------------|
E|--------------------------|-----------------------------|

C#5    D#5    F#5   G#5  C#5
E|-------9-------------|------------------------10----------------10-|
B|-10-11---11--10-8-11-|-8-10-11-10-8----10-----------11111111111----|
G|---------------------|--------------10-----10----10----------------|
D|---------------------|---------------------------------------------|
A|---------------------|---------------------------------------------|
E|---------------------|---------------------------------------------|


G#5      C#5      G#5      A#5       G#5
Tanto tiempo disfrutamos de este amor,
         C#5      G#5     A#5        G#5
nuestras almas se acercaron tanto así,
C#5                 D#5
que yo guardo tu sabor,
F#5
pero tú llevas también,
G#5         C#5
sabor a mí.

G#5      C#5      G#5      A#5       G#5
Pasarán más de mil años muchos más
         C#5      G#5     A#5        G#5
yo  o sé si tenga amor la eternidad
C#5*                D#5
pero allá tal como aquí
F#5
en tu boca llevarás
G#5         C#5
sabor a mí.

ACORDES:
E|-----X-----X-----X-----X-----X-----| * = SKA
B|-----X-----X-----X-----X-----X-----|
G|-----6-----8-----X-----X-----X-----|
D|-----6-----8-----6-----4-----8-----|
A|-----4-----6-----6-----4-----8-----|
E|-----X-----X-----4-----2-----6-----|
      C#5   D#5   G#5   F#5   A#5
Calificar esta versión:
Aviso: Este fichero es trabajo propio de su transcriptor y representa su interpretación personal de la canción. El material contenido en esta página es para exclusivo uso privado, por lo que se prohibe su reproducción o retransmisión, así como su uso para fines comerciales.