Loco, Rescate (acordes)

Autor: f-chito14 | 39228 visualizaciones

amcfg


 
E-----8---------------9------------
B--------9----------------9--6-----
G------------8---------------------
D----------------------------------
A----------------------------------
E----------------------------------


E-8--------------6-----------------
B-----9---------------8------------
G---------8--------------8---------
D----------------------------------
A----------------------------------
E----------------------------------

E-----8---------------9------------
B--------9----------------9--6-----
G------------8---------------------
D----------------------------------
A----------------------------------
E----------------------------------

E-8-----------6--------------------
B-----9-----------8------9---------
G---------8----------8-------------
D----------------------------------
A----------------------------------
E----------------------------------

C       F        C    G  C       F       C       F      G
YA CUCU YA CU CU YA CUCU YA CUCU YA CUCU YA CUCU YA CUCUY
C       F        C    G  C       F       C       F      G
YA CUCU YA CU CU YA CUCU YA CUCU YA CUCU YA CUCU YA CUCUY

F               C                    F                 C
ME DECIAN EN LA ESCUELA Y EN EL BAR, QUE LOCURA QUE TENIA
F                  C                F                 C
POR DECIR QUE JESUCRISTO ERA VERDAD ME CORRIO LA POLICIA

[ESTO SE TOCA POR QUINTAS]
Am              G         F         G
LOCO LOCO LOCO SEGUIRE, LOCO LOCO TE DIRE
---------
  CORO
---------
[TAMBIEN POR QUINTAS]
C         F         C        G
LOCO LOCO LOCO LOCO LOCO POR VOS
C         F         C        G
LOCO POR DECIRLE A TODOS LO QUE PASO
C         F         C        G
LOCO LOCO LOCO LOCO SIEMPRE SERE
C              F               C      G
Y AUN QUE DIGAN QUE ESTOY LOCO TE SEGUIRE.

E-----8---------------9------------
B--------9----------------9--6-----
G------------8---------------------
D----------------------------------
A----------------------------------
E----------------------------------


E-8--------------6-----------------
B-----9---------------8------------
G---------8--------------8---------
D----------------------------------
A----------------------------------
E----------------------------------

E-----8---------------9------------
B--------9----------------9--6-----
G------------8---------------------
D----------------------------------
A----------------------------------
E----------------------------------

E-8-----------6--------------------
B-----9-----------8------9---------
G---------8----------8-------------
D----------------------------------
A----------------------------------
E----------------------------------

C       F        C    G  C       F       C       F      G
YA CUCU YA CU CU YA CUCU YA CUCU YA CUCU YA CUCU YA CUCUY
C       F        C    G  C       F       C       F      G
YA CUCU YA CU CU YA CUCU YA CUCU YA CUCU YA CUCU YA CUCUY


F                C
SI ESTAR LOCO ES SENTIR LA LIBERTAD
F                C
QUE LA CRUZ ME DIO AQUEL DIA
F                C
YO PREFIERO SER UN LOCO EN LA CIUDAD
F                C
Y NO SER UN MUERT EN VIDA HA HA
[POR QUINTAS]
Am              G         F         G
LOCO LOCO LOCO SEGUIRE, LOCO LOCO TE DIRE

  CORO

C         F         C        G
LOCO LOCO LOCO LOCO LOCO POR VOS
C         F         C        G
LOCO POR DECIRLE A TODOS LO QUE PASO
C         F         C        G
LOCO LOCO LOCO LOCO SIEMPRE SERE
C              F               C      G
Y AUN QUE DIGAN QUE ESTOY LOCO TE SEGUIRE.
C              F               C      G
Y AUN QUE DIGAN QUE ESTOY LOCO TE SEGUIRE.
C              F               C      G
Y AUN QUE DIGAN QUE ESTOY LOCO TE SEGUIRE.
C              F
Y AUN QUE DIGAN QUE ESTOY LOCO.

  C        F     C      G
 YA CUCU YA CUCU YA CUCUY
 





Comentarios del colaborador: podemos seguir locos y formar una revolucion por jesus ipuc ibague central

Calificar esta versión:
Aviso: Este fichero es trabajo propio de su transcriptor y representa su interpretación personal de la canción. El material contenido en esta página es para exclusivo uso privado, por lo que se prohibe su reproducción o retransmisión, así como su uso para fines comerciales.