Romance, Rene Bartoli (tablatura)

Autor: MELCHIAH04 | 38533 visualizaciones



PRIMER MOVIMIENTO
 Em              Am              Bm              Em
---------0-------------------------------2-----------------------
-0---------------1---------------0---------------0---------------
-----0-------0-------2-------2-------2-------2-------0-------0---
---2---2---2---2---2---2---2---2---1---1---1---1---2---2---2---2-
-----------------0-------3-------2-------2-----------------------
-0-------0---------------------------------------0-------3-------
 Em              Am              ?               ?
---------3---------------2---------------0---------------2-------
-0---------------1---------------2---------------4---------4---4-
-----0-------0-------2-------2-------0-------0-------2-------2---
---2---2---2---2---2---2---2---2---2---2---2---2---4---4---------
-----------------0-------0-------1-------1-------2-------2-------
-0-------0-------------------------------------------------------

SE REPITE EL PRIMER MOVIMIENTO

SEGUNDO MOVIMIENTO
-7-------12-------8-------8-----7-5-------8-----7-3--------------
---0---0----0---0---5---5---5-------4---4---4-------0---0---0---0
-----0--------0-------5-------5-------4-------4-------0-------0--
--------------------------7-------4-------4---------------2------
------------------0----------------------------------------------
-0--------0---------------------------------------0--------------

-1-------3-----1-0-------2-----0-2-------2-3P2---0-------3-----7
---1---1---1-------2---2---2-------4---4-------4---0---0---0----
-----2-------2-------0-------0-------2---------------0-------0--
-----------------------------------------4----------------------
-0-------0-------1-------1-------2------------------------------
-------------------------------------------------0-------0------

-5-------5-----7-3-------2-----3-0---------------
---5---5---5-------0---0---0-------0---0---0---0-
-----5-------5-------0-------2-------0-------0---
---------7-------2-------1---------------2-------
-0-----------------------------------------------
---------------------------------0---------------

SE REPITE EL SEGUNDO MOVIMIENTO Y EL GRAN FINAL
          
-0-------¤0¤-
---0---0-¤0¤-
-----0---¤0¤-
-------------
-------------
-0-------¤0¤-
¤lo que esta entre "¤" son armonicos del traste 12¤

LA VELOCIDAD DEPENDE DE QUE QUIERAS HACER SENTIR LENTO ES TRISTE, MODERADO ES ROMANTICA Y RAPIDO ES MUY ALEGRE, SOLO RESTA QUE LA DEDIQUEN CON UNPOEMA Y CONSIGUEN NOVIA POR QUE YO LO HICE Y FUNCIONO, SUERTE
"AQUEL QUE SE ARRODILLA FRENTE A UN DIOS NO ES LIBRE"





Calificar esta versión:
Aviso: Este fichero es trabajo propio de su transcriptor y representa su interpretación personal de la canción. El material contenido en esta página es para exclusivo uso privado, por lo que se prohibe su reproducción o retransmisión, así como su uso para fines comerciales.