Reflejos De Uno Mismo, Renacer Del Tiempo (tablatura)

Autor: [anoni]MauroRD[anoni] | 32634 visualizaciones

La afinacion para este tema es :
Drop C... Bussquen en youtube y afinen... sino no les va a salir igual!


Intro:
6)--0-0-0---0-0-0------0-0-0-----0-0-0-------------
5)----------------8~7--------7~5--------3-5-3~-----
4)-------------------------------------------------

6)--0-0-0---0-0-0------0-0-0-----0-0-0-------------
5)----------------8~7--------7~5--------3-0-5~~----
4)-------------------------------------------------


creo que son 6 o 7 veses el intro...

Acordes en 5ta!

6)-------------------------------------------------0-0-0-----------0-0-0------------------------0-0-0------
5)---8--8--8--8--8--8--8--8--8--8--8--8--8--8------------8--8--7----------13-13-13-13-13-13-13----------
4)---10-10-10-10-10-10-10-10-10-10-10-10-10-10-----------10-10-9----------15-15-15-15-15-15-15----------

6)--0-0-0-----------0-0-0--------------------------------
5)--------8--8--7----------15-15-15-15-15-15-15----------
4)--------10-10-9----------17-17-17-17-17-17-17----------                         x 2

6)--3----2----1~--0--0--0-----0>0>0--0>0>0----0-0-0------0-0---0-0----0--0--0-------0>0>0--0>0>0----0-0-0
5)--3----2----1------------------------------------------------------------------------------------------
4)------------------------------------------------------------------------------------------------------- 



6)---------------------------------------------------
5)---8--8--8--8--8--8--8--8--8--8--8--8--8--8--------
4)---10-10-10-10-10-10-10-10-10-10-10-10-10-10-------
                         

6)--~--0--0--0-----0>0>0--0>0>0----0-0-0------0-0---0-0----0--0--0-------0>0>0--0>0>0----0-0-0
5)--------------------------------------------------------------------------------------------
4)-------------------------------------------------------------------------------------------- 




Y todo eso es la cancion,,,!
El final es asi !!! MASOMENOS!

6)---0-0---0-0-----0-0-0-0-----0-0--0-0---0---0--0------0-0--0---------0-00-------0~~~~--
5)---------------------------------------------------------------------------------------



recuerden que para hacer este tema es nesesario afinar en drop C ...
Gracias... comenten la cancion que quieran.... y si me quieren agregar ...
Mi Facebook es Mauro Paz
!!! Gracias! Dejen su comentario!

Comentarios del colaborador: recuerden que para hacer este tema es nesesario afinar en drop c ...

Calificar esta versión:
Aviso: Este fichero es trabajo propio de su transcriptor y representa su interpretación personal de la canción. El material contenido en esta página es para exclusivo uso privado, por lo que se prohibe su reproducción o retransmisión, así como su uso para fines comerciales.