City Of Angels (intro), Red Hot Chili Peppers (tablatura)

Autor: martin32 | 34140 visualizaciones



----------------------------------------------------------------
----------3----------------------------------------------3h5h3--
------2------2--------------------3-----------------2-----------
----4---4--------------------4------4--4-2-0------4---4---------
--5-------------4-2-0------4---4--------------4-5---------------
----------------------4--2--------------------------------------

----------------------------------|
---------------------------------.|
------------------3---------------|
--4-/-6------4------4--4-2-0------|
--5-/-7----4---4--------------4--.|
---------2------------------------|





Calificar esta versión:
Aviso: Este fichero es trabajo propio de su transcriptor y representa su interpretación personal de la canción. El material contenido en esta página es para exclusivo uso privado, por lo que se prohibe su reproducción o retransmisión, así como su uso para fines comerciales.