Californiacation, Red Hot Chili Peppers (tablatura)

Autor: josee | 34816 visualizaciones



e|-----9------------9----------------------------------------------9-12-14~~
B|--10-----------10---------------------------------------------10----------
G|-------11b13--------11b13--11-11--11^9-------------9-9b11-9---------------
D|---------------------------------------11-11--9-11---------11-------------
A|--------------------------------------------------------------------------
E|--------------------------------------------------------------------------

e|-----9-12-14b16-14----17-16-14-12-14-12----12------------------------12---
B|--10------------------------------------14----14--12b14-12b14-12b14-----14
G|--------------------------------------------------------------------------
D|--------------------------------------------------------------------------
A|--------------------------------------------------------------------------
E|--------------------------------------------------------------------------

e|-12b14-12--- 12-----------12-10-9h10p9----------|
B|----------14----14-12-10---------------10-------|
G|------------------------------------------------|
D|------------------------------------------------|
A|------------------------------------------------|
E|------------------------------------------------|



		   





Calificar esta versión:
Aviso: Este fichero es trabajo propio de su transcriptor y representa su interpretación personal de la canción. El material contenido en esta página es para exclusivo uso privado, por lo que se prohibe su reproducción o retransmisión, así como su uso para fines comerciales.