Cabron, Red Hot Chili Peppers (acordes)

Autor: sama jazz | 44078 visualizaciones

aambmddog


 Esta cancion para matar ,,mmmmmmmmmmm seeeee

INTRO:

  2X                            3X               
e|----17------14-----|-----------------|--10-9-|
B|----x-------x------|------12---------|-------|
G|----14------11-----|---------12------|-------|
D|----16------12-----|------------12---|-------|
A|----17------14-----|---10------------|-------|
E|-------------------|-----------------|-------|


                                           
e|-----------------10-----|-----------------7-----|
B|-----------------10-[5x]|-----------------7-----|
G|-11-9------------11-----|-9---------------7-[5x]|2X
D|------12-11-12---12-----|---12-11---------------|
A|------------------------|---------12-9----------|
E|------------------------|-----------------------|
   D      Bm
Cabron  Cabron
Cabron  Cabron

I see you in the park
You're always wearing
Dodger blue
Mad Doggin'me and
Anyone frow my other crew

G                      A 
I Am small but i Am strong     |
I'll get it on with you        |
D              Bm              |
If you want me to              |
What else can i Do             |
                               |
Everyone would take a cue      |
From anything you Do           |
If you want them to            |
What else can they Do          |
                               |
I don't want to fight          |
I want to get along with you   |
This time of night's           |
For singin'songs               |
About the local news           |

Cabron  cabron
cabron  cabron

I will come around and make peace
get down have a barbeque
let's keep away
and Do eletric boogiloo 


         D                       Bm
|-------10--------------|---------7-------------|
|-------10--------------|---------7-------------|
|-------11--------------|---------7-------------|
|-------12--------------|-----------------------|
|-----------------------|-----------------------|
|-----------------------|-----------------------|


|--9/---14------------|--9/---7--------------|--7/---3-------|
|---------------------|----------------------|---------------|
|---------------------|----------------------|---------------|
|---------------------|----------------------|---------------|
|---------------------|----------------------|---------------|
|---------------------|----------------------|---------------| 





Comentarios del colaborador: CifraClub

Calificar esta versión:
Aviso: Este fichero es trabajo propio de su transcriptor y representa su interpretación personal de la canción. El material contenido en esta página es para exclusivo uso privado, por lo que se prohibe su reproducción o retransmisión, así como su uso para fines comerciales.