Round And Round, Ratt (tablatura)

Autor: julian martin arias | 28399 visualizaciones

la cuerda 1 es el mi agudo

   1-----------------------------------------------
   2-------------------8--8--7-8-7-7-5-------------
   3---9---------------9--9--7-7-7-7-5-------------
   4---9---------------7--7--7-7-7-5-5-------------
   5---7--------------------------------------------
   6-------0-0-0-0-0--------------------------------

   1------------------------------------------
   2----------------7-7----9----11-11---------
   3--5-5-5-5-5-5---7-7-5--9-7--11-11-9-------
   4--5-5-5-5-5-5---5-5-5--7-7--9--9--9-------
   5--3-3-3-3-3-3---3-3-3--5-5--7--7--7-------
   6-----------------------------------------

 





   1-----------------------------------------------
   2-----------------------------------------------
   3-----------------------------------------------
   4-----------------------------------------------
   5--5-7-5---5-5-4-5-4-2---5-4--5-5-4-4-5-7-------
   6--------------------0--3----3------------------ 


aguante sportsman......  espero q les guste
Calificar esta versión:
Aviso: Este fichero es trabajo propio de su transcriptor y representa su interpretación personal de la canción. El material contenido en esta página es para exclusivo uso privado, por lo que se prohibe su reproducción o retransmisión, así como su uso para fines comerciales.