La Miedosa, Ramon Ayala (acordes)

Autor: Anónimo | 18154 visualizaciones

bmcg
Buena cancion movida del rey del acordeon. 

Intro:

Riff 1
e|--------------------------|
b|--------------------------|
g|--------------------------|
d|--------------------------|
a|---2-2-3-2---2-2-2-2-3-2--|
e|-3---------3--------------|

G                            C        Riff 1
 Ahora que hablamos de gente miedosa
G                          C       Riff 1
 de mi chamaca les dire una cosa
Bm                  C      
 Tiene miedo de ir al cine 
Bm                  C 
 no vaya a ser que yo me arrime
G          C G        C  Riff 2
 he he he he he he he he

 A duras penas va a pasear en coche

 para volver a las siete de la noche

 Tiene miedo...

 --Solo de acordeon--

e|-----------------------------|----------|-------------------|
b|-12--12-12-12-13-12-12-------|----13-12-|-13-12-12-13-13-12-|
g|-12--------------------12-12-|-12-------|-------------------|
d|-----------------------------|----------|-------------------|
a|-----------------------------|----------|-------------------|
e|-----------------------------|----------|-------------------|

e|--------------------|-------------------|-------------------|
b|-13-11-10--13-11-10-|-13-13-13-12-12-12-|-13-13-13-12-12-12-|
g|--------------------|-------------------|-------------------|
d|--------------------|-------------------|-------------------|
a|--------------------|-------------------|-------------------|
e|--------------------|-------------------|-------------------|

e|-15-15-15-15----15-15-|
b|-------------15-------|
g|----------------------|
d|----------------------|
a|----------------------|
e|----------------------|

Riff 2
e|-------------|
b|-------------|  <-Este riff se toca al terminar el solo y despues de los
g|-------------|    'he he he...'
d|-------------|
a|--------2----|
e|-1-1--3------|


 Por una vez que le tome la mano
 
 se fue corriendo y vino con su hermano

 Tiene miedo...


 Ojala les guste. Echenle oido a la cancion sobre todo en el solo.
 Se ven.
 Cualquier duda y/o comentario no duden en mandarlo a:
 vege@atame.org
Calificar esta versión:
Aviso: Este fichero es trabajo propio de su transcriptor y representa su interpretación personal de la canción. El material contenido en esta página es para exclusivo uso privado, por lo que se prohibe su reproducción o retransmisión, así como su uso para fines comerciales.