El Sol Parece Lluvia, Raly Barrionuevo (acordes)

Autor: Anónimo | 41880 visualizaciones

doremsolm6
     Solm6      Do       Rem
1. ---------|---------|--------0-1------|
2. --------3|-------1-|------3-----3----|
3. -------0-|-----0---|----2---------2--|
4. ----0----|---2-----|--0------------0-|
5. -1-------|-3-------|-----------------|
6. ---------|---------|-----------------|

    Solm6      Do       Rem
1. ---------|---------|--------0-0s1----|
2. --------3|-------1-|------3---3------|
3. -------0-|-----0---|----2-----2------|
4. ----0----|---2-----|--0--------------|
5. -1-------|-3-------|-----------------|
6. ---------|---------|-----------------|


Solm6     Do      Rem
Por el camino me voy
Solm6     Do      Rem
no tengo apuro en llegar no, no...
Solm6     Do      Rem
tampoco tiempo para detenerme
Solm6     Do      Rem
tan solo quiero rodar.

Voy con el viento detras
el va empujando mi andar
por que tan solo soy un barrilete
que con la tarde se va.


Y voy , por que soy sombra y soy luz
y voy, por que soy tierra y soy mar
por que soy grito que habra de escucharse
o mas alla o mas aca.

             Do            Rem
Y por que el sol parece lluvia
         Solm6 Do  Rem
el trigo verde girasol
     Do        Rem
el sol parece lluvia
         Solm6 Do   Rem
el trigo verde girasol.

Tengo una planta y un perro azul
siempre la riego y le doy luz
fumamos juntos bajo las estrellas
donde ya no hay multitud.

Y voy, por que no puedo volver
y voy, por que asi puedo cantar
por que mis ojos seran de la tierra
y mi alma se ha de esfumar.

Por que el sol prece lluvia
el trigo verde girasol
el sol parece lluvia
y el trigo verde girasol.
Calificar esta versión:
Aviso: Este fichero es trabajo propio de su transcriptor y representa su interpretación personal de la canción. El material contenido en esta página es para exclusivo uso privado, por lo que se prohibe su reproducción o retransmisión, así como su uso para fines comerciales.