Chacarera Del Polear, Raly Barrionuevo (acordes)

Autor: Anónimo | 22169 visualizaciones

la7mimsi7
ESTA OTRA CHACARERA QUE CANTA RALY EN VIVO

CHACARERA DEL POLEAR 

INTRO: 

[1]|---5---5---3---3--2--0-----0--2--3--|
[2]|----5-5-----3-3---------4-----------|
[3]|-----6-------4----2--0-----0--2--4--|
[4]|---------5--------------4-----------|
[5]|-0----------------------------------|
[6]|------------------------------------|


[1]|---5---5---3---3--3--2--0--|
[2]|----5-5-----3-3------------|
[3]|-----6-------4----4--2--0--|
[4]|---------5-----------------|
[5]|-0-------------------------|
[6]|---------------------------|




Mim       Sol  
Yo soy de ese pago lindo 
         La7         Sol  
que le llaman El Polear 
     La7              Sol  
dichoso de aquel que nace 
     Si7          Mim 
y muere en ese lugar. 

Allí nació Eusebio More 
que al violín lo hacia hablar 
dueño de la chacarera 
con que yo aprendí a silbar. 

Pago del famoso 'Shinfu' 
'Alliyachej' curador 
y también de Blas Noriega 
el famoso rastreador.


Chacarera, chacarera 
Rupachicoj del Polear 
bracita que enciende el pucho 
dolido de mi cantar.


Callejones polvorientos 
llenos de luna y de sol 
con tus recuerdos se pone 
Chaupi Chaupi el corazón. 

Me voy en sueños cantando 
camino de Media Flor 
y en la represa yo busco 
reflejos de un viejo amor. 

Animas de Tata Mañu 
que me vengan a tocar 
con su arpita milagrosa 
chacareras del lugar.
Calificar esta versión:
Aviso: Este fichero es trabajo propio de su transcriptor y representa su interpretación personal de la canción. El material contenido en esta página es para exclusivo uso privado, por lo que se prohibe su reproducción o retransmisión, así como su uso para fines comerciales.