Quisiera, Raices (tablatura)

Autor: 79050131 | 42854 visualizaciones

ISTRUCCIONES.- se empieza a acompañar con la 2da guitarra 
desde sol2, que es sol+ sin variación solo lo coloqué para que se 
guíen...y otra cosa más, el riff lo hace la segunda guitarra, la nota La2 
es repetida como en el intro y vale como tal La+.

Intro

Primer guitarra
punteado    rasgado acompañado del riff1 
SOL LA RE   SOL2 LA RE. . . . . .           
    riff2
SOL LA FA#- SI- SOL LA RE LA2 LA2   LA2 LA2 LA2
Segunda guitarra
riff1
   La           Re
e|-7-7-7-7-7-5?-5-5-5----------------------------------------------
B|----------------------------------------------------------------- 
G|-----------------------------------------------------------------
D|-----------------------------------------------------------------
A|-----------------------------------------------------------------
E|-----------------------------------------------------------------
riff2
   La           Re    Sol   La       fa#-   si-  Sol    Re
e|-7-7-7-7-7-5-?5-5-5----------------------------------------------
B|-------------------7-5-5-7/5-2-2-2-2-3-3-3-2-2-0-0-0-3-2/3------- 
G|-----------------------------------------------------------------
D|-----------------------------------------------------------------
A|-----------------------------------------------------------------
E|-----------------------------------------------------------------

LA2  Re           La
    Quisiera...
                 Re    RIFF
    Volver otra vez.
Sol          La              Re  RIFF
    Aquellos días cuando te amé
Sol         La                  fa#-
    Aquella vez cuando en mi cuarto
		si-  
    me dijiste si
Sol         La                  Re     LA2
    Aquella vez que nunca olvidarée...

    Re           La
    Quisiera...
                     Re    RIFF
    Volverte a encontrar.
Sol             La                Re    RIFF
    Por todo el mundo te voy a buscaar
Sol           La            fa#-       si-
    Por favor vuelve y dame otra oportunidad
         Sol       La                 Re    RIFF
    Para quererte igual que un tiempo atrás



Sol           La         Re  RIFF
   Siempre te voy a recordar 
	
   Lo sabes bien
Sol          La       Re  RIFF
   Nunca te voy a olvidar 
   
   lo sabes bien
Sol           La                
   Por que tú has sido y siempree                                            
fa#-    si- 
   Tu seráas... 
Sol          La              Re    RIFF
   La única mujer que voy a amar... 


Sol        La         Re  RIFF
    No te dejé de extrañar 
    
    lo sabes bien
Sol          La          Re  RIFF   
    Que tengo mucho para dar
    
    lo sabes bien
Sol           La                
    Por que tú has sido y siempree                                              
fa#-     si-    
    Tu seráas... 
Sol          La              Re    RIFF
    La única mujer que voy a amar... 

Primer guitarra

SOL LA RE   SOL LA RE   SOL LA fa# si-   SOL LA RE      

Segunda guitarra 

e|-------------------------------------------------------------
B|-2/3-3-3-2-3-5-3--------------2/3-3-3-2-3-5-3----------------
G|----------------2?2-2-0-2/4-2----------------2?2-2-0-2/4-2---
D|-------------------------------------------------------------
A|-------------------------------------------------------------
E|-------------------------------------------------------------


e|--------------------------------3-3-3-2-2-0-0-0-------------------------
B|-2/3-3-3-2-3-5-3----7-5-7-5-3--3----------------3-2/3-2-3/5-3-3-3-2-3-3-
G|------------------------------------------------------------------------
D|------------------------------------------------------------------------
A|------------------------------------------------------------------------
E|------------------------------------------------------------------------

uuummmmmmm..
Sol           La         Re  RIFF
   Siempre te voy a recordar 
	
   Lo sabes bien
Sol          La       Re  RIFF
   Nunca te voy a olvidar 
   
   lo sabes bien
Sol           La                
   Por que tú has sido y siempree                                             
fa#-    si-   
   Tu seráas... 
Sol          La              Re    RIFF
   La única mujer que voy a amar... 


Sol        La         Re  RIFF
    No te dejé de extrañar 
    
    lo sabes bien
Sol          La          Re  RIFF   
    Que tengo mucho para dar
    
    lo sabes bien
Sol           La                
    Por que tú has sido y siempree                                           
fa#-     si-     
    Tu seráas... 
Sol          La              Re    
    La única mujer que voy a amar...

Re La si-
     Sol   La           Re    
    La única mujer que voy a amar...

Re La si-
     Sol   La           Re    
    La única mujer que voy a amar...

salida- outro

e|-------2-----------1-------1/2----------------------
B|-----3---3-------2---2-----2/3---------------------- 
G|---2-------2---1-------1---1/2----------------------
D|-0------------0------------0/0----------------------
A|----------------------------------------------------
E|----------------------------------------------------

Riff

e|------3-7/8-7-5-------------------------------------------
B|-5-7-8---------7-7/8-------------------------------------- 
G|----------------------------------------------------------
D|----------------------------------------------------------
A|----------------------------------------------------------
E|----------------------------------------------------------

Esta es toda la canción, no tiene fallas, pero deben escucharla primero 
la canción por que varían los tiempos.
Calificar esta versión:
Aviso: Este fichero es trabajo propio de su transcriptor y representa su interpretación personal de la canción. El material contenido en esta página es para exclusivo uso privado, por lo que se prohibe su reproducción o retransmisión, así como su uso para fines comerciales.