No Surprises, Radiohead (tablatura)

Autor: santric | 26091 visualizaciones

intro
e--5-----------------------------------/
b----6--x3-----6-8---------------------/
g---5-5-------6------------------------/  4 veces
d------------8-------------------------/
a--------------------------------------/
e--------------------------------------/

toda la cancion va igual


e--5-----------5----------6-------------------5----------------/
b----6--x4-------6--x4------6--x2--6-5-3-5-6----6--x3-----6-8--/
g---5-5---------7-7--------7-7-----------------5-5-------6-----/
d-------------------------------------------------------8------/
a--------------------------------------------------------------/
e--------------------------------------------------------------/


hay una partecita que cambia ia se daran cuenta van las mismas notas

bueno no es un gran aporte solo es para los que esten comensando 
ai les va comenten al parecer :D mi msn santric_world@hotmail.com 
Calificar esta versión:
Aviso: Este fichero es trabajo propio de su transcriptor y representa su interpretación personal de la canción. El material contenido en esta página es para exclusivo uso privado, por lo que se prohibe su reproducción o retransmisión, así como su uso para fines comerciales.