Just, Radiohead (tablatura)

Autor: krloz97 | 38816 visualizaciones

Intro (Thom Yorke): 
e------------------------------------------------------------------------------ 
B--5---5--------8--8-8-7--7-7-7-7-x-10-10-10----------------------------------- 
G--5---5-x-x-x--8--8-8-7--7-7-7-7-x-10-10-10----------------------------------- 
D--5---5-x-x-x--8--8-8-7--7-7-7-7-x-10-10-10---------------------------------- 
A--3---3-x-x-x--6--6-6-5--5-5-5-5-x-8--8--8------------------------------------ 
E------------------------------------------------------------------------------ 
 
Riff 1-----------------------------------------------------------------------} 
 
(Jon Greenwood) Trem__________________________________________________}  
 
e-----------------------------------------------------10-11---13-14---16-17--- 
B------------------------------------------------------------------------------ 
G--x-x-x-x----5--5--7--8---10-11---13--14----16--17---7--8----10-11---13-14--- 
D--x-x-x-x-x2------------------------------------------------------------------ 
A--x-x-x-x----3--3--5--6---8--9----11--12----14--15---------------------------- 
E------------------------------------------------------------------------------ 
 
Verse (Jon) Eb F(8ft) Am Ab 
 
e------------------------------------------------------------------------------ 
B------------------------------------------------------------------------------ 
G--- Am ---- Ab ----------14--15--17--16--17--19-----------14--15--17--7--8--10 
D-------------------------15----------17-------------------15----------8------- 
A------------------------------------------------------------------------------ 
E-------------------------13----------15-------------------13----------6------- 
 
.5 .5 
 
e------------------------------------------------------------------------------ 
B------------------------------------------------------------------------------ 
G----5--7-7/----5-------5--7--7/-----5----4------5------8/--------------------- 
D--7----------7------6------------6---------5------4--------------------------- 
A---------------------------------------------5------4------------------------- 
E------------------------------------------------------------------------------ 
 
Chorus: 
 
Riff 2----------------------------------------} 
 
e-----------------0------0----------------0------------------------------------ 
B-------------------------------------------1---------------------------------- 
G--9---9------------3----------------------------- Riff 2 -- Riff 1 ---------- 
D--10--10----4------------3--3---3----3--------------------------------------- 
A--10--10----4------------3--3---3----3--------------------------------------- 
E--8---8-----2------------1--1---1----1--------------------------------------- 
 
T T T T 
 
2nd Time 
 
Trem.____________________________________________} 
 
e------------------------------------------------------------------------------ 
B--5----7--8---10--11-------12----10---8----6---5------------------------------ 
G------------------13/------14/---12/--10/--8/--7/----------------------------- 
D------------------------------------------------------------------------------ 
A------------------------------------------------------------------------------ 
E------------------------------------------------------------------------------ 
 
(Thom)Gtr.1 
 
Part 1______________________________________________} 
 
e-------------------------------------------------------------------------------------------- 
B-------------------------------------------------------------------------------------------- 
G-17--17--17-16--14-14-14-x-x--17--17--17-15--13-13-13-12/13-12-12-12-x-x-10/12-10-10-10-x-x- 
D-------------------------------------------------------------------------------------------- 
A-15--15--15-14--12-12-12-x-x--15--15--15-13--11-11-11-10/11-10-10-10-x-x--8/10--8--8--8-x-x- 
E-------------------------------------------------------------------------------------------- 
 
Repeat part 1 
 
(Jon) Gtr.2 
 
Part 2_____________________________________________} 
 
e-------------------------------------------------------------------------------------------- 
B-17--17--17-15--13-13-13-x-x--16--16--16-15--13-13-13-11/13-11-11-11-x-x-13/15-13-13-13-x-x- 
G-------------------------------------------------------------------------------------------- 
D-14--14--14-12--10-10-10-x-x--13--13--13-12--10-10-10--8/10--8--8--8-x-x-10/12-10-10-10-x-x- 
A-------------------------------------------------------------------------------------------- 
E-------------------------------------------------------------------------------------------- 
 
Repeat part 2 
 
-pick scrape- 
 
e------------------------------------------------------------------------------ 
B------------------------------------------------------------------------------ 
G-4-4-4-4-3-3-3-3-2------------------------------------------------------------ 
D-5-5-5-5-4-4-4-4-3------------------------------------------------------------ 
A-5-5-5-5-4-4-4-4-3-----------------------------------------------^^^^^^^^^^^^- 
E-3-3-3-3-2-2-2-2-1-----------------------------------------------^^^^^^^^^^^^- 
 
.5 
 
e------------------------------------------------------------------------------ 
B--12-11-10-------------------------------------------------------------------- 
G-----------12/--11-10-------10-12-10--10-12-10------- x2 --- Chorus ---------- 
D----------------------10h12--------------------------------------------------- 
A------------------------------------------------------------------------------ 
E------------------------------------------------------------------------------ 
 
(pitch shifter up one octave) (pitch shifter up two octaves) 
 
Trem.______________________________________________________ 
 
e--8---10-11---13-14---16-17-----8---10-11---13-14---16-17----20-(3bars)--17-- 
B------------------------------------------------------------------------------ 
G--5---7--8----10-11---13-14-----5---7--8----10-11---13-14--------------------- 
D------------------------------------------------------------------------------ 
A------------------------------------------------------------------------------ 
E------------------------------------------------------------------------------ 
 
e------------------------------------------------------------------------------ 
B--x--4--x--4----x-x----------------------------------------8-8-8-8--8-8-8-8--- 
G--x--3--x--3----x-x-----8--8-8-8-8--8-8--8-8-8--8-8--8--8--8-8-8-8--8-8-8-8--- 
D--x--2--x--2----x-x----------------------------------------------------------- 
A--x--3--x--3----x-x----------------------------------------------------------- 
E------------------------------------------------------------------------------ 
 
C Bb5 A5 Eb5 
 
Riff 3---------------------------------------------------------} 
e------------------------------------------8/p6------------------------------- 
B----------------------------------------8--------8/p6--7-5------------------- 
G-8p5------5-8p5-----5-8p5-----5-8p5-------------------------7----------------- 
D-----8-/--------8/--------8/--------8/---------------------------------------- 
A------------------------------------------------------------------------------ 
E------------------------------------------------------------------------------ 
 
.5-----------------} 
e------------------------------------------------------------------------------ 
B---------------------------------------6/-6-6-6-6-6-6-6-6-6------------------- 
G--8p5-----5-8p5-----5-8p5-----5-8p5------------------------------ Riff 3------ 
D------8/--------8/--------8/--------8/---------------------------------------- 
A------------------------------------------------------------------------------ 
E------------------------------------------------------------------------------ 
 
e------------------------------------------------------------------------------ 
B------------------------------------------------------------------------------ 
G--8p5------8p5-----5--8p5----------------------------------------------------- 
D------8/-------8/---------8/---sl.------------------------------------------- 
A------------------------------------------------------------------------------ 
E------------------------------------x-----------------------------------------

Comentarios del colaborador: http://www.cifras.com.br/tablatura/radiohead/just

Calificar esta versión:
Aviso: Este fichero es trabajo propio de su transcriptor y representa su interpretación personal de la canción. El material contenido en esta página es para exclusivo uso privado, por lo que se prohibe su reproducción o retransmisión, así como su uso para fines comerciales.