High & Dry, Radiohead (tablatura)

Autor: jojoma | 35681 visualizaciones

 'High & Dry', Radiohead
_________________________________
-Album: "The Bends"
-Afinación: EADGBe, standard.

*Transcripto por: sebas arash.
*buenos aires, argentina, 2008 enero
*MSN o Email por cualquier duda o comentario: playing.the.angel_@hotmail.com
*Web:  www.myspace.com/thexsaddestxkidxalive  
_________________________________


DIAGRAMA DE ACORDES QUE SE USAN:
  F#  A  E
e|0---0--0----------------------------------------------------------------------|
B|0---0--0----------------------------------------------------------------------|
G|2---6--1----------------------------------------------------------------------|
D|4---7--2----------------------------------------------------------------------|
A|4---7--2----------------------------------------------------------------------|
E|---------------------------------------------------------------------------|

=====================================================================================
LETRA:


INTRO/RIFF PRINCIPAL:
e|0--0--0--0--0--0----0--0--0--0--0-0-0----0--------
B|0--0--0--0--0--0----0--0--0--0--0-0-0----0--------
G|13-13-13-13/11-11---13-13-13-13/9-9-9----1--------
D|-----------------------------------------2--------
A|11-11-11-11/9--9----11-11-11-11/7-7-7----2--------
E|-----------------------------------------0--------

F#
Two jumps in a week
                               A               E   (repite mismos acordes)
I bet you think that's pretty clever don't you boy?
Flying on your motorcycle,
Watching all the ground beneath you drop
You'd kill yourself for recognition,
Kill yourself to never ever stop
You broke another mirror,
You're turning into something you are not

               F#                   A   E
Don't leave me high, don't leave me dry
Don't leave me high, don't leave me dry

Drying up in conversation,
You will be the one who cannot talk
All your insides fall to pieces,
You just sit there wishing you could still make love
They're the ones who'll hate you
When you think you've got the world all sussed out
They're the ones who'll spit at you,
You will be the one screaming out

Don't leave me high, don't leave me dry
Don't leave me high, don't leave me dry

It's the best thing that you ever had,
The best thing that you ever, ever had
It's the best thing that you ever had,
The best thing you ever had has gone away



________________________________________________________
Referencias:

b: bending, estirar.
b!!!: high bending, estirar mucho.
br: estirar y luego soltar (cosa que se toquen dos notas en un estiramiento)
/: slide, deslizar hasta.
x: palm mutting.
(número): estirar hasta tal nota.       
Calificar esta versión:
Aviso: Este fichero es trabajo propio de su transcriptor y representa su interpretación personal de la canción. El material contenido en esta página es para exclusivo uso privado, por lo que se prohibe su reproducción o retransmisión, así como su uso para fines comerciales.