Premonición A La Muerte De Joaquín Murieta, Quilapayun (acordes)

Autor: Anónimo | 46689 visualizaciones

doefafasosfasosmglalammisi7simsol


Lam- Fa#m -Lam- Fa#m -Lam- Fa#m[2 veces]
Lamm Fa#m -Lam- Fa#m -Solm- Fa#m -Lam

Junto punteo
E/-----------------------
B/10-9-8-----------------
G/-------11-10-9---------
D/--------------12-11-10-
-

E/-------------------------------------------------------------------
B/10-9-8---------10-9-8--------10-9-8-10-9-8--10-9-8-----------------
G/-------11-10-9--------11-10-9---------------------11-10-9----------
D/---------------------------------------------------------12-11-10--



Lam
Escucha la arena
                Fa
que mueve el desierto
              Si7
escucha el reloj
                       Mi
que entierra a los muertos.
             Sim
Atrás bandolero
                 Fa#m
la muerte te aguarda,
                 Fa#
llegaron los galgos,
               Sim
murió una guitarra,
                Sol
tu sangre invisible
            Do
será derramada.
            Fa#
¿Oíste Murieta?

Sol          Fa#
Ya no montarás,
Sol          Fa#
ya no correrás,
Sol          Fa#
ya no vengarás,
Sol         Fa#
ya no vivirás.



Intro

La tierra te advierte
se cumple el destino,
los galgos te acechan,
termina tu suerte,
te siguen las huellas,
no traigas la rosa,
el llanto en la luna
La lluvia prepara,
se acerca la muerte
te aguarda la fosa.
¡Murieta deténte!

Ya no montarás...





Calificar esta versión:
Aviso: Este fichero es trabajo propio de su transcriptor y representa su interpretación personal de la canción. El material contenido en esta página es para exclusivo uso privado, por lo que se prohibe su reproducción o retransmisión, así como su uso para fines comerciales.