El Forastero, Quilapayun (acordes)

Autor: Anónimo | 45205 visualizaciones

adofalalammimsisi7sol
Quilapayun hizo esta version del forastero en el año 2003 y la pueden encontrar en 
la paguina del conjunto...los acordes estan 100% buenos...
que la disfruten

Cejillo 2° espacio

Introducción

        Lam              Do            Mim                    Mim  [se repite este rasgueo 1 vez mas]
| |--------0--------0---------0---------0---------|------*0----0------0--------|
| |---3-------1--------1-----------0--------------|------*0----0------0--------|
| |-----------------------------------------------|------*0----0------0--------|
| |---2-------0-----------------------------------|------*2----2------2--------|
| |----------------------3----------2-------------|------*2----2------2--------|
| |------------------------------------------0----|--0--------------0------0---|
                                                   [*rasgueo dedo índice hacia arriba]

                                                                  Mim  [este es el rasgueo para los versos]
| -------0-------0-----0-------0----------|--------*0----0------0-------||
| ----------------------------------------|------*0----0------0-------||
| ---6-------4------2------5-------3------|--------*0----0------0-------||
| ---7-------5------3------6-------4------|--------*2----2------2--------||
| ----------------------------------------|------*2----2------2--------||
| ----------------------------------------|--0--------------0------0---||

parte A
 Mim      Do          Sol
Que de la llanura viene
 Si7                 [ Lam - La4]
lo dice el tranco miedoso
Mim      Do          Sol
y a un pie le pide permiso
Si 7                 [ Lam - La 4]
para levantar el otro
 Lam                Fa
pero lo descompone
 Fa         Si 7     [ IV 2-0; V 3-0 ;VI 0 ]
el camino pedregoso.

parte A
El Litre da mala sombra
le dijeron cuando mozo
y a ningún árbol se arrima
si no sombrea con otro
la ¿????????? mi intención
hasta en el sauce piadoso


 Mim                   Sol
Los montañeses le gritan
  La          Sol* - Mim
En el ultimo recodo
 [ a capela]
Caminos de la montaña

Son de Dios y de nosotros

Intro

parte A
Voz del viento que atropella
oye cerrando los ojos
y hace una cruz de suspiro
por su llanura en reposo
cuando pasa el remolino
de papel y piedra y polvo.

parte A
Digo que cantan de noche
los altos pinos sonoros
nada supo el forastero
del corto tranco miedoso
y se va con el permiso
de un pie para alzar el otro

Mim                   Sol
Los montañeses le gritan
  La          Sol* - Mim
En el ultimo recodo
 [ a capela]
Caminos de la montaña
[ a capela]
Son de Dios y de nosotros

Acordes:
SOL*: 355433
DO   :  x32010
SOL  :  320033
Mim  :  022000
LA 4  :  x02230
FA     :   133211
LA     :   x02220
Lam    :  x02210
Si 7   :  x21201
Calificar esta versión:
Aviso: Este fichero es trabajo propio de su transcriptor y representa su interpretación personal de la canción. El material contenido en esta página es para exclusivo uso privado, por lo que se prohibe su reproducción o retransmisión, así como su uso para fines comerciales.