Llorando Se Fue, Querembas (bajo)

Autor: Anónimo | 34070 visualizaciones

DE BRUNO M2M DISFRUTENLA Y AGUENTE EL ROCK ….ESTE COVER ESTA RE BUENO
TONO G D A E
pre intro:
G-----------------------------
D-----------------------------
A-2------2------5------5------
E---0000---0000---3333---3333-

Intro:
-------------------------------------------
-------------------------------------------
-------------------------------------------
-------000--00-000-00-----333--33--333-33--

verso:
---------------------------
---------------------------
---------------------------  x2
-----00-00-0--33-33-3------       --333--(antes de coro)

coro:
---------------------------------------------------------
---------------------------------------------------------
---------3333333----------333333---9--7--5----7-----77---
-555555-----------555555---------------------------------

-------------------------------------------------------------
-------------------------------------------------------------
---------3333333----------333333---9--7--5-------------------
-555555-----------555555-------------------------------------

repite intro:

repite verso:

repite coro:

intermedio:
-----------------------------
-----------------------------
-2------2------5------5------
---0000---0000---3333---3333-

en el solo de guitarra repite coro:

solo de bajo:
-------------------------------------------------------
--------0-2------0-2-------- ---------0-2--2-4-2-6-----
---0 2-------0-2-------0-2--- -----0-2-----------------
-------------------------------------------------------
-------------------------------------------------------
--------0-2------0-2-------- ---------0-2--2-4-4-6-7-9-
---0 2-------0-2-------0-2--- -----0-2-----------------
-------------------------------------------------------

repite intermedio:x6
repite coro:
final:
--------------------------
--------------------------
--5/77777777-x6-------(7)-
--------------------------
Calificar esta versión:
Aviso: Este fichero es trabajo propio de su transcriptor y representa su interpretación personal de la canción. El material contenido en esta página es para exclusivo uso privado, por lo que se prohibe su reproducción o retransmisión, así como su uso para fines comerciales.