Cuando Cae La Noche, Querembas (tablatura)

Autor: Anónimo | 34976 visualizaciones



Ok..la afinación de Querembas si no me equivoco esta en -D-
o si prefieren en -Re- pero para facilitarles el trabajo lo pase
a la afinación normal que esta en -E- asi que no se sorprendan si
las notas las ven medio raras, bueno entonces con esa explicación
ahí les va...



Intro:

Guitarra-1-

e.-10-10-10-13-13-13----------13-13-12-12-10-10----------
B.-------------------10-10-10----------------------------
G.-------------------------------------------------------
D.-------------------------------------------------------  x(3)
A.-------------------------------------------------------
E.-------------------------------------------------------

e.-10-10-10-13-13-13-15-15-15-13-13-12-12-10-10----------
B.-------------------------------------------------------
G.-------------------------------------------------------
D.-------------------------------------------------------
A.-------------------------------------------------------
E.-------------------------------------------------------

Ok mientras la primera guitarra va tokando esto la segunada va
dandole estas notas

Guitarra -2-

e.---------------------------------------------------------------
B.---------------------------------------------------------------
G.-7--7--7-7-7-7--------------------------------5--5--5-5-5-5----
D.-7--7--7-7-7-7--8--8--8-8-8-8--3--3--3-3-3-3--5--5--5-5-5-5----  x(2)
A.-5--5--5-5-5-5--8--8--8-8-8-8--3--3--3-3-3-3--3--3--3-3-3-3----
E.----------------6--6--6-6-6-6--1--1--1-1-1-1-------------------



Ok aki es el pedo,el verso tiene no solo notas aka lo adorna
Con algo mas Cheken..(suena mejor si lo hacen con palmuted) pm..

Verso

    El cielo esta igual que ayer la luna es ciega
e.------------------------------------------------------
B.------------------------------------------------------
G.------------------------------------------------------
D.------------------------------------------------------   x(2)
A.---5-5-5-8-8-8-0-0-0-7s8-8-7-7-5-5--------------------
E.------------------------------------------------------

   No puedo......       no Kiero......
e.------------------------------------------------------
B.------------------------------------------------------
G.----------------------5--5--5-5-5-5-------------------
D.-8--8--8-8-8-8--------5--5--5-5-5-5-------------------
A.-8--8--8-8-8-8--------3--3--3-3-3-3-------------------
E.-6--6--6-6-6-6----------------------------------------

  Cada noche te encuentro en mis suenios
e.------------------------------------------------------
B.------------------------------------------------------
G.------------------------------------------------------
D.------------------------------------------------------   x(2)
A.---5-5-5-8-8-8-0-0-0-7s8-8-7-7-5-5--------------------
E.------------------------------------------------------

   MI vida......        perdida......
e.------------------------------------------------------
B.------------------------------------------------------
G.----------------------5--5--5-5-5-5-------------------
D.-8--8--8-8-8-8--------5--5--5-5-5-5-------------------
A.-8--8--8-8-8-8--------3--3--3-3-3-3-------------------
E.-6--6--6-6-6-6----------------------------------------

Precoro


    No podre       morire       salvare      mi alma
e.--------------------------------------------------------
B.--------------------------------------------------------
G.----7--7---------7--7----------7--7--------7--7---------
D.----7--7---------7--7----------7--7--------7--7---------
A.----5--5---------5--5----------5--5--------5--5---------
E.----5--5---------5--5----------5--5--------5--5---------

CORO:

 Guitarra-1-

      Donde......          me esperaras......

e.-10-10-10-13-13-13----------13-13-12-12-10-10----------
B.-------------------10-10-10----------------------------
G.-------------------------------------------------------
D.-------------------------------------------------------    x(3)
A.-------------------------------------------------------
E.-------------------------------------------------------

      Cuando cae la noche.......

e.-10-10-10-13-13-13-15-15-15-13-13-12-12-10-10----------
B.-------------------------------------------------------
G.-------------------------------------------------------
D.-------------------------------------------------------
A.-------------------------------------------------------
E.-------------------------------------------------------

   Te voy......          a encontrar......

e.-10-10-10-13-13-13----------13-13-12-12-10-10----------
B.-------------------10-10-10----------------------------
G.-------------------------------------------------------
D.-------------------------------------------------------    x(3)
A.-------------------------------------------------------
E.-------------------------------------------------------

      Donde el cielo se esconde.......

e.-10-10-10-13-13-13-15-15-15-13-13-12-12-10-10----------
B.-------------------------------------------------------
G.-------------------------------------------------------
D.-------------------------------------------------------
A.-------------------------------------------------------
E.-------------------------------------------------------

     ......aka la guitarra 2 toka las notas del intro
           Durante todo el coro..

Guitarra -2-

e.---------------------------------------------------------------
B.---------------------------------------------------------------
G.-7--7--7-7-7-7--------------------------------5--5--5-5-5-5----
D.-7--7--7-7-7-7--8--8--8-8-8-8--3--3--3-3-3-3--5--5--5-5-5-5----  x(2)
A.-5--5--5-5-5-5--8--8--8-8-8-8--3--3--3-3-3-3--3--3--3-3-3-3----
E.----------------6--6--6-6-6-6--1--1--1-1-1-1-------------------


Verso -2-

    En la oscuridad de la noche
e.------------------------------------------------------
B.------------------------------------------------------
G.------------------------------------------------------
D.------------------------------------------------------   x(2)
A.-----5-5-5-8-8-8-0-0-0-7s8-8-7-7-5-5------------------
E.------------------------------------------------------


   Mi sangre......       muerta sin razon......
e.------------------------------------------------------
B.------------------------------------------------------
G.----------------------5--5--5-5-5-5-------------------
D.-8--8--8-8-8-8--------5--5--5-5-5-5-------------------
A.-8--8--8-8-8-8--------3--3--3-3-3-3-------------------
E.-6--6--6-6-6-6----------------------------------------

El silencio esconde mis plegarias
e.------------------------------------------------------
B.------------------------------------------------------
G.------------------------------------------------------
D.------------------------------------------------------   x(2)
A.---5-5-5-8-8-8-0-0-0-7s8-8-7-7-5-5--------------------
E.------------------------------------------------------


   MI vida......        perdida......
e.------------------------------------------------------
B.------------------------------------------------------
G.----------------------5--5--5-5-5-5-------------------
D.-8--8--8-8-8-8--------5--5--5-5-5-5-------------------
A.-8--8--8-8-8-8--------3--3--3-3-3-3-------------------
E.-6--6--6-6-6-6----------------------------------------

Precoro


    No podre       morire       salvare      mi alma
e.---------------------------------------------------------------
B.---------------------------------------------------------------
G.----7--7---------7--7----------7--7--------7--7----------------
D.----7--7---------7--7----------7--7--------7--7----------------
A.----5--5---------5--5----------5--5--------5--5----------------
E.----5--5---------5--5----------5--5--------5--5----------------



CORO:

 Guitarra-1-

      Donde......          me esperaras......

e.-10-10-10-13-13-13----------13-13-12-12-10-10----------
B.-------------------10-10-10----------------------------
G.-------------------------------------------------------
D.-------------------------------------------------------    x(3)
A.-------------------------------------------------------
E.-------------------------------------------------------

      Cuando cae la noche.......

e.-10-10-10-13-13-13-15-15-15-13-13-12-12-10-10----------
B.-------------------------------------------------------
G.-------------------------------------------------------
D.-------------------------------------------------------
A.-------------------------------------------------------
E.-------------------------------------------------------

   Te voy......          a encontrar......

e.-10-10-10-13-13-13----------13-13-12-12-10-10----------
B.-------------------10-10-10----------------------------
G.-------------------------------------------------------
D.-------------------------------------------------------    x(3)
A.-------------------------------------------------------
E.-------------------------------------------------------

      Donde el suenio se esconde.......

e.-10-10-10-13-13-13-15-15-15-13-13-12-12-10-10----------
B.-------------------------------------------------------
G.-------------------------------------------------------
D.-------------------------------------------------------
A.-------------------------------------------------------
E.-------------------------------------------------------

......aka la guitarra 2 toka las notas del intro
Durante todo el coro..

Guitarra -2-

e.---------------------------------------------------------------
B.---------------------------------------------------------------
G.-7--7--7-7-7-7--------------------------------5--5--5-5-5-5----
D.-7--7--7-7-7-7--8--8--8-8-8-8--3--3--3-3-3-3--5--5--5-5-5-5----  x(2)
A.-5--5--5-5-5-5--8--8--8-8-8-8--3--3--3-3-3-3--3--3--3-3-3-3----
E.----------------6--6--6-6-6-6--1--1--1-1-1-1-------------------




..luego aki viene el puente .....

PUENTE:

Guitarra -1- y -2-

     Cuando cae , cuando cae, cuando cae la noche!!......
e.------------------------------------------------------
B.------------------------------------------------------
G.------------------------------------------------------
D.------------------------------------------------------   x(9)
A.--------------3-6-5-3-8-6-5-6-------------------------
E.--------------3-6-5-3-8-6-5-6-------------------------

ski solo la guitarra 1

Guitarra -1-

e.-10-10-10-13-13-13----------13-13-12-12-10-10----------
B.-------------------10-10-10----------------------------
G.-------------------------------------------------------
D.-------------------------------------------------------
A.-------------------------------------------------------
E.-------------------------------------------------------

CORO:

 Guitarra-1-

      Donde......          me esperaras......

e.-10-10-10-13-13-13----------13-13-12-12-10-10----------
B.-------------------10-10-10----------------------------
G.-------------------------------------------------------
D.-------------------------------------------------------    x(3)
A.-------------------------------------------------------
E.-------------------------------------------------------

      Cuando cae la noche.......

e.-10-10-10-13-13-13-15-15-15-13-13-12-12-10-10----------
B.-------------------------------------------------------
G.-------------------------------------------------------
D.-------------------------------------------------------
A.-------------------------------------------------------
E.-------------------------------------------------------

   Te voy......          a encontrar......

e.-10-10-10-13-13-13----------13-13-12-12-10-10----------
B.-------------------10-10-10----------------------------
G.-------------------------------------------------------
D.-------------------------------------------------------    x(3)
A.-------------------------------------------------------
E.-------------------------------------------------------

      Donde el suenio se esconde.......

e.-10-10-10-13-13-13-15-15-15-13-13-12-12-10-10----------
B.-------------------------------------------------------
G.-------------------------------------------------------
D.-------------------------------------------------------
A.-------------------------------------------------------
E.-------------------------------------------------------

......aka la guitarra 2 toka las notas del intro
Durante todo el coro..

Guitarra -2-

e.---------------------------------------------------------------
B.---------------------------------------------------------------
G.-7--7--7-7-7-7--------------------------------5--5--5-5-5-5----
D.-7--7--7-7-7-7--8--8--8-8-8-8--3--3--3-3-3-3--5--5--5-5-5-5----  x(2)
A.-5--5--5-5-5-5--8--8--8-8-8-8--3--3--3-3-3-3--3--3--3-3-3-3----
E.----------------6--6--6-6-6-6--1--1--1-1-1-1-------------------




..luego aki viene el puente con el que termina.....

PUENTE:

Guitarra -1- y -2-

     Cuando cae , cuando cae, cuando cae la noche!!......
e.------------------------------------------------------
B.------------------------------------------------------
G.------------------------------------------------------
D.------------------------------------------------------   x(9)
A.--------------3-6-5-3-8-6-5-6-------------------------
E.--------------3-6-5-3-8-6-5-6-------------------------


                FIN....=P



Ok eso es todo espero que les sirva,cualquier
duda o correccion, o felicitaciones....xD porfavor
escrivan A MI correo  ( [email protected] )
eso fue todo me llamo Guillermo y ps saludos a mi banda
......-AnatomicA-......nos vmos se portan mal...





Calificar esta versión:
Aviso: Este fichero es trabajo propio de su transcriptor y representa su interpretación personal de la canción. El material contenido en esta página es para exclusivo uso privado, por lo que se prohibe su reproducción o retransmisión, así como su uso para fines comerciales.