Friends Will Be Friends, Queen (tablatura)

Autor: mickymetal | 38240 visualizaciones



---------------------------------------------------------------12--------------
------------------------------------------------------------15-----------------
---------------7-9b11-7----9-11-12---11-12-14---12-14-14b16-------16b14--12----
-----5---5-7/9---------------------------------------------------------------14
-5h7---------------------------------------------------------------------------
-------------------------------------------------------------------------------

-------12-------------------------------------------------------------------
-----------------------________------________-----______-----_____--------8-
-12-14----14b16---14---12h14p12-11---11h12p11-9---9h11p9-7---7h9p7------7---
-------------------------------------------------------------------10-9-----
----------------------------------------------------------------------------
----------------------------------------------------------------------------

----------------------------------10b12----10-8-7--------
-10b12___r10p8-10---12r10p8-7-8-------------------10-8...
---------------------------------------------------------
---------------------------------------------------------
---------------------------------------------------------
---------------------------------------------------------





Comentarios del colaborador: es mi primer tablatura qur subo espero que les guzte rock metal eternoz!!!!!!!!!!!!!!!!!!!!1

Calificar esta versión:
Aviso: Este fichero es trabajo propio de su transcriptor y representa su interpretación personal de la canción. El material contenido en esta página es para exclusivo uso privado, por lo que se prohibe su reproducción o retransmisión, así como su uso para fines comerciales.