Te Invito A Soñar, Proyección (tablatura)

Autor: Anónimo | 22617 visualizaciones

Ritmo: Chuntunqui

notas utilizadas:
      Am   G   F   C  C1  Em  Dm
e. --|-0-|-3-|-1-|-0-|-0-|-0-|-1-|--
B. --|-1-|-0-|-1-|-1-|-1-|-0-|-3-|--
G. --|-2-|-0-|-2-|-0-|-0-|-0-|-2-|--
D. --|-2-|-0-|-3-|-2-|-2-|-2-|-0-|--
A. --|-0-|-2-|-3-|-3-|-3-|-2-|-0-|--
E. --|-0-|-3-|-1-|-0-|-3-|-0-|-0-|--

INTRO: Am G F C Em C F Am Em C F Am

e. -17-------|
B. ----17----|
G. -------17-| X4
D. ----------|
A. ----------|
E. ----------|

          Am                      G
e. ----------|-----------8----------|
B. -13p12----|-8-10-8-10---8h10-8---|
G. -------14-|--------------------9-|
D. ----------|----------------------|
A. ----------|----------------------|
E. ----------|----------------------|

                     F                    C
e. --------------------|----------------------|
B. ---------8----------|----------------------|
G. -9-7-9-7---7h9-7----|-----------7----7-7h9-|
D. -----------------10-|-7-10-7-10---10-------|
A. --------------------|----------------------|
E. --------------------|----------------------|

    Em                  C                   F             Am
e. ------------------------|-------------------|--------------|
B. -7h8-7-8-7-8-10-8-7-7h8-|-7-8-7-8-10-8-7----|----10--------|
G. ------------------------|----------------10-|-10----10-8h9-|
D. ------------------------|-------------------|--------------|
A. ------------------------|-------------------|--------------|
E. ------------------------|-------------------|--------------|

    Em                  C                    F
e. ------------------------|-----------------8-|
B. -7h8-7-8-7-8-10-8-7-7h8-|-7-8-7-8-10-8-10---|
G. ------------------------|-------------------|
D. ------------------------|-------------------|
A. ------------------------|-------------------|
E. ------------------------|-------------------|

          Am
e. -7-8-7-5-|---------|
B. ---------|-0-1-0---|
G. ---------|-------2-|
D. ---------|---------|
A. ---------|---------|
E. ---------|---------|


Te invito a soñar
Am
con un nuevo fulgor
    G
que cambie tu vivir
     F
y te ayude a despertar;
       C
tienes que saber,
        Dm
hay un mundo que por ti
        Am
siente amor, mucho amor
         G           Am

el veneno aquel corroe tu existir,
Am                  G
te haz vuelto a sumergir
         F
en el mar de la ansiedad;
       C
tu puedes vencer,
      Dm
hay un nuevo amanecer:
        Am
Drogas no vida  si,
      G       Am
Drogas no vida  si;
      G       Am   G
ven aquí, dejemos todo atrás,
       C     G
quiero ser tu guía al caminar,
       Dm      Am          G
hay un dios que te ama de verdad,
         C        G
piensa bien, a las drogas dile no....
        Dm          Am          G


acompaña a las QUENAS: C Am F G C C1 C G F F F Am G
                       C Am F G C C1 C G F F F Am


Quiero cobijar
Am
al ser que se marcho
    G
por el camino que
    F
le llevo a la perdición
       C
y no solo yo
      D
todos debemos confiar
      Am
y ayudar a vencer
      G       Am


debemos juntar
Am
mil voces y gritar
     G
que no queremos más
     F
aquel veneno letal
       C
y a los niños de hoy
         Dm
enseñarles a decir:
    Am
Drogas no vida  si,
      G       Am
Drogas no vida  si;
      G       Am   G
ven aquí, dejemos todo atrás,
       C     G
quiero ser tu guía al caminar,
       Dm      Am          G
hay un dios que te ama de verdad,
        C         G
piensa bien, a las drogas dile no.
        Dm          Am          G

acompaña a las QUENAS: C Am F G C C1 C G F F F Am G
                       C Am F G C C1 C G F F F Am G
                       C Am F G C C1 C G F F F Am


- El INTRO también lo pueden hacer así:

e. -17-------|
B. ----17----|
G. -------17-| X4
D. ----------|
A. ----------|
E. ----------|

          Am                           G
e. ----------|----------------------------|
B. -13p12----|-------------13-------------|
G. -------14-|-12-14-12-14----12h14-12----|
D. ----------|-------------------------14-|
A. ----------|----------------------------|
E. ----------|----------------------------|

                            F                          C
e. ----------------------------|----------------------------|
B. ----------------------------|----------------------------|
G. -------------14-------------|----------------------------|
D. -12-14-12-14----12h14-12----|-------------12----12-12h14-|
A. -------------------------15-|-12-15-12-15----15----------|
E. ----------------------------|----------------------------|

     Em                         C                           F
e. ----------------------------------|-------------------------|
B. ----------------------------------|-------------------------|
G. -11h12-11-12-11-12-14-12-11-11h12-|-11-12-11-12-14-12-11----|
D. ----------------------------------|----------------------15-|
A. ----------------------------------|-------------------------|
E. ----------------------------------|-------------------------|

             Am    Em                         C
e. -------------|----------------------------------|
B. -------------|----------------------------------|
G. -------------|-11h12-11-12-11-12-14-12-11-11h12-|
D. ----14-------|----------------------------------|
A. -15----15-14-|----------------------------------|
E. -------------|----------------------------------|

                         F             Am
e. -------------------------|-------------|---------|
B. ----------------------13-|-12-13-12-10-|-0-1-0---|
G. -11-12-11-12-14-12-14----|-------------|-------2-|
D. -------------------------|-------------|---------|
A. -------------------------|-------------|---------|
E. -------------------------|-------------|---------|

- Algún comentario a lirodiba85@hotmail.com
Calificar esta versión:
Aviso: Este fichero es trabajo propio de su transcriptor y representa su interpretación personal de la canción. El material contenido en esta página es para exclusivo uso privado, por lo que se prohibe su reproducción o retransmisión, así como su uso para fines comerciales.