The Way It Ends, Prototype (tablatura)

Autor: el_jvc | 30325 visualizaciones



1 --------------------------------------------------------------|
2 --------------------------------------------------------------|
3 ------------------6-------6-------9-------------8-------------|
4 ---------10-------4-------4-------7-------------6-------------|X2
5 ---------8--------4-------4-------7-------------6-------------|
6 --2/-----8--------7-------4-------7------------10-------------|

1 -------------------------------------------------------------------------------------------------|   se repite             --------------------| 
2 -------------------------------------------------------------------------------------------------|   exepto el             --------------------|
3 -------------------------------------------------------------------------------------------------|X2 7 y 10, y se pasa     --------------------|
4 ---8------8-----10----11-----11-----13------11-------10-------11-----------------7--------10-----|   altiro al 16          --------16----------|
5 -------------------------------------------------------------------------------------------------|                         --------------------|
6 ---8------8-----10----11-----11-----13------11-------10-------11-----------------7--------10-----|                         --------16----------|

1 -------------------------------------------------------------------------------------------------|
2 -------------------------------------------------------------------------------------------------|
3 -------------------------------------------------------------------------------------------------|
4 ---7-------10-------3-----------3---------3---------3-----------3-----------3--------------------|
5 --------------------1-1-1-1-1-1-1-1-1-1-1-1-1-1-1-1-1-1-1-1-1-1-1-1-1-1-1-1-1-1-1-1--------------|
6 ---7-------10------------------------------------------------------------------------------------|

1 -------------------------------------------------------------------------------------------------|
2 -------------------------------------------------------------------------------------------------|
3 -----------------------------------------3-----------6-------------6-----------6-----------------|
4 -3-----------3-----------3-------------4---4-3-1-3---4-------------4-----------4-----------------|
5 -1-1-1-1-1-1-1-1-1-1-1-1-1-1-1-1-1-1-1---------------0-0-0-0-0-0-0-0-0-0-0-0-0-0-0-0-0-----------|
6 -------------------------------------------------------------------------------------------------|

1 ------------------------------------------------------------------------------------------------------|
2 ------------------------------------------------------------------------------------------------------|
3 --6-----------6-------------6-------6-----------6---------6-------6-----------6-------------6---------|
4 --4-----------4-------------4-------4-----------4---------4-------4-----------4-------------4---------|
5 --0-0-0-0-0-0-0-0-0-0-0-0-0-0-0-0-0-0-0-0-0-0-0-0-0-0-0-0-0-0-0-0-0-0-0-0-0-0-0-0-0-0-0-0-0-0-0-0-0---|
6 ------------------------------------------------------------------------------------------------------|

1 ------------------------------------------------------------------------------------------------------|
2 ------------------------------------------------------------------------------------------------------|
3 ------------------------------------------------------------------------------------------------------|
4 --3-----------3-----------3-------3-----------3-----------3-------3-----------3-----------3-----------|
5 --1-1-1-1-1-1-1-1-1-1-1-1-1-1-1-1-1-1-1-1-1-1-1-1-1-1-1-1-1-1-1-1-1-1-1-1-1-1-1-1-1-1-1-1-1-1-1-1-1---|
6 ------------------------------------------------------------------------------------------------------|

1 ------------------------------------------------------------------------------------------------------|
2 ------------------------------------------------------------------------------------------------------|
3 -----3-----3--------------6---------6---------6-------6-----------6-----------6-----------6-----------|
4 --------3-----4--3--1--3--4---------4---------4-------4-----------4-----------4-----------4-----------|
5 -1-1----------------------0-0-0-0-0-0-0-0-0-0-0-0-0-0-0-0-0-0-0-0-0-0-0-0-0-0-0-0-0-0-0-0-0-0-0-0-0---|
6 ------------------------------------------------------------------------------------------------------|

1 --------------------------------------------------------------------------|
2 --------------------------------------------------------------------------|
3 -6-----------6-----------6---------6-----------6-----------6--------------|
4 -4-----------4-----------4---------4-----------4-----------4--------------|
5 -0-0-0-0-0-0-0-0-0-0-0-0-0-0-0-0-0-0-0-0-0-0-0-0-0-0-0-0-0-0-0-0-0-0------|
6 --------------------------------------------------------------------------|

1 ----------------------------------------------------------------------|
2 ----------------------------------------------------------------------|
3 -8-----------8-----------8-------8-------------8-----------8----------|
4 -6-----------6-----------6-------6-------------6-----------6----------|
5 -4-4-4-4-4-4-4-4-4-4-4-4-4-4-4-4-4-4-4-4-4-4-4-4-4-4-4-4-4-4-4-4-4----|
6 ----------------------------------------------------------------------|

1 ----------------------------------------------------------------------|
2 ----------------------------------------------------------------------|
3 --8-------------8-----------8-------8-----------8-------------8-------|
4 --6-------------6-----------6-------6-----------6-------------6-------|
5 --3-3-3-3-3-3-3-3-3-3-3-3-3-3-3-3-3-3-3-3-3-3-3-3-3-3-3-3-3-3-3-3-3-3-|
6 ----------------------------------------------------------------------|

1 ----------------------------------------------------------------------|
2 ----------------------------------------------------------------------|
3 -8-----------8-----------8-------8-------------8-----------8----------|
4 -6-----------6-----------6-------6-------------6-----------6----------|
5 -4-4-4-4-4-4-4-4-4-4-4-4-4-4-4-4-4-4-4-4-4-4-4-4-4-4-4-4-4-4-4-4-4----|
6 ----------------------------------------------------------------------|

1 -----------------------------------------------------------------|
2 -----------------------------------------------------------------|
3 -11--------11--------11--------10---------10---------10----------|
4 -9---------9---------9---------8----------8----------8-----------|
5 -7-7-7-7-7-7-7-7-7-7-7-7-7-7-7-6-6-6-6-6-6-6-6-6-6-6-6-6-6-6-----|
6 -----------------------------------------------------------------|

1 ----------------------------------------------------------------------|
2 ----------------------------------------------------------------------|
3 -8-----------8-----------8-------8-------------8-----------8----------|
4 -6-----------6-----------6-------6-------------6-----------6----------|
5 -4-4-4-4-4-4-4-4-4-4-4-4-4-4-4-4-4-4-4-4-4-4-4-4-4-4-4-4-4-4-4-4-4----|
6 ----------------------------------------------------------------------|

1 ----------------------------------------------------------------------|
2 ----------------------------------------------------------------------|
3 --8-------------8-----------8-------8-----------8-------------8-------|
4 --6-------------6-----------6-------6-----------6-------------6-------|
5 --3-3-3-3-3-3-3-3-3-3-3-3-3-3-3-3-3-3-3-3-3-3-3-3-3-3-3-3-3-3-3-3-3-3-|
6 ----------------------------------------------------------------------|

1 ----------------------------------------------------------------------|
2 ----------------------------------------------------------------------|
3 -8-----------8-----------8-------8-------------8-----------8----------|
4 -6-----------6-----------6-------6-------------6-----------6----------|
5 -4-4-4-4-4-4-4-4-4-4-4-4-4-4-4-4-4-4-4-4-4-4-4-4-4-4-4-4-4-4-4-4-4----|
6 ----------------------------------------------------------------------|

1 ------------------------------------|
2 ------------------------------------|
3 ---------8--------------8----8---8--|
4 ---------9-------9------8----8---8--|
5 ----7-------------------6----6---6--|
6 ------------------------------------|



1 --------------------------------------------------------------------------------|
2 --------------------------------------------------------------------------------|
3 --3-----------------------------3-------------------5---------6-----------------|
4 --3-----------------------------3-------------------5---------6-----------------|
5 --1-1-1-1-1-1-1-1-1-1-1-1-1-1-1-1-1-1-1-1-1-1-1-1-1-3-3-3-3-3-4-4-4-4-----------|
6 --------------------------------------------------------------------------------|

1 --------------------------------------------------------------------------------|
2 --------------------------------------------------------------------------------|
3 -6---------------------------------------8-------6-----------5------------------|
4 -6---------------------------------------8-------6-----------5------------------|
5 -4-4-4-4-4-4-4-4-4-4-4-4-4-4-4-4-4-4-6-6-6-6-6-6-4-4-4-4-4-4-3-3-3-3------------|
6 --------------------------------------------------------------------------------|

1 --------------------------------------------------------------------------------|
2 --------------------------------------------------------------------------------|
3 -4-------------------------------4-----------6-----------4----------------------|
4 -4-------------------------------4-----------6-----------4----------------------|
5 -4-4-4-4-4-4-4-4-4-4-4-4-4-4-4-4-4-4-4-4-4-4-6-6-6-6-6-6-4-4-4-4----------------|
6 --------------------------------------------------------------------------------|

1 --------------------------------------------------------------------------------|
2 --------------------------------------------------------------------------------|
3 -3-----------------------------3---------3-----------3--------------------------|
4 -3-----------------------------3---------3-----------3--------------------------|
5 -3-3-3-3-3-3-3-3-3-3-3-3-3-3-3-3-3-3-3-3-3-3-3-3-3-3-3-3-3-3--------------------|
6 --------------------------------------------------------------------------------|



1 --------------------------------------------------------------------------------|
2 --------------------------------------------------------------------------------|
3 --3-----------------------------3-------------------5---------6-----------------|
4 --3-----------------------------3-------------------5---------6-----------------|
5 --1-1-1-1-1-1-1-1-1-1-1-1-1-1-1-1-1-1-1-1-1-1-1-1-1-3-3-3-3-3-4-4-4-4-----------|
6 --------------------------------------------------------------------------------|

1 --------------------------------------------------------------------------------|
2 --------------------------------------------------------------------------------|
3 -6---------------------------------------8-------6-----------5------------------|
4 -6---------------------------------------8-------6-----------5------------------|
5 -4-4-4-4-4-4-4-4-4-4-4-4-4-4-4-4-4-4-6-6-6-6-6-6-4-4-4-4-4-4-3-3-3-3------------|
6 --------------------------------------------------------------------------------|

1 --------------------------------------------------------------------------------|
2 --------------------------------------------------------------------------------|
3 -4-------------------------------4-----------6-----------4----------------------|
4 -4-------------------------------4-----------6-----------4----------------------|
5 -4-4-4-4-4-4-4-4-4-4-4-4-4-4-4-4-4-4-4-4-4-4-6-6-6-6-6-6-4-4-4-4----------------|
6 --------------------------------------------------------------------------------|

1 --------------------------------------------------------------------------------|
2 --------------------------------------------------------------------------------|
3 -3-----------------------------3---------3-----------3--------------------------|
4 -3-----------------------------3---------3-----------3--------------------------|
5 -3-3-3-3-3-3-3-3-3-3-3-3-3-3-3-3-3-3-3-3-3-3-3-3-3-3-3-3-3-3--------------------|
6 --------------------------------------------------------------------------------|

1 -----------------------------------|
2 -----------------------------------|
3 ------------3-----2-----------2----|
4 -1-----0----3-----2-----4-----2----|
5 -1-----0----1-----0-----4-----0----|
6 -1-----0----------------4----------|

1 ------------------------------------------------------------------------------------------------------|
2 ------------------------------------------------------------------------------------------------------|
3 ------------------------------------------------------------------------------------------------------|
4 --3-----------3-----------3-------3-----------3-----------3-------3-----------3-----------3-----------|
5 --1-1-1-1-1-1-1-1-1-1-1-1-1-1-1-1-1-1-1-1-1-1-1-1-1-1-1-1-1-1-1-1-1-1-1-1-1-1-1-1-1-1-1-1-1-1-1-1-1---|
6 ------------------------------------------------------------------------------------------------------|

1 ------------------------------------------------------------------------------------------------------|
2 ------------------------------------------------------------------------------------------------------|
3 -----3-----3--------------6---------6---------6-------6-----------6-----------6-----------6-----------|
4 --------3-----4--3--1--3--4---------4---------4-------4-----------4-----------4-----------4-----------|
5 -1-1----------------------0-0-0-0-0-0-0-0-0-0-0-0-0-0-0-0-0-0-0-0-0-0-0-0-0-0-0-0-0-0-0-0-0-0-0-0-0---|
6 ------------------------------------------------------------------------------------------------------|

1 --------------------------------------------------------------------------|
2 --------------------------------------------------------------------------|
3 -6-----------6-----------6---------6-----------6-----------6--------------|
4 -4-----------4-----------4---------4-----------4-----------4--------------|
5 -0-0-0-0-0-0-0-0-0-0-0-0-0-0-0-0-0-0-0-0-0-0-0-0-0-0-0-0-0-0-0-0-0-0------|
6 --------------------------------------------------------------------------|

1 --------------------------------------------------------------------|
2 --------------------------------------------------------------------|
3 --6-----------6-----------6-----------------------------------------|
4 --4-----------4-----------4-------3-----------3-----------3---------|
5 --0-0-0-0-0-0-0-0-0-0-0-0-0-0-0-0-1-1-1-1-1-1-1-1-1-1-1-1-1-1-1-1-1-|
6 --------------------------------------------------------------------|

1 -----------------------------------------------------------------------------------------------------------|
2 -----------------------------------------------------------------------------------------------------------|
3 ----------------------------------------------------------------------------3-----3------------------------|
4 -3-----------3-------------3---------3-----------3-----------3-----------------3-----4--3--1--3------------|
5 -1-1-1-1-1-1-1-1-1-1-1-1-1-1-1-1-1-1-1-1-1-1-1-1-1-1-1-1-1-1-1-1-1-1-1-1-1---------------------------------|
6 -----------------------------------------------------------------------------------------------------------|


1 --------------------------------------------------------------------------|
2 --------------------------------------------------------------------------|
3 -6-----------6-----------6---------6-----------6-----------6--------------|
4 -4-----------4-----------4---------4-----------4-----------4--------------|
5 -0-0-0-0-0-0-0-0-0-0-0-0-0-0-0-0-0-0-0-0-0-0-0-0-0-0-0-0-0-0-0-0-0-0------|
6 --------------------------------------------------------------------------|

1 --------------------------------------------------------------------------|
2 --------------------------------------------------------------------------|
3 -6-----------6-----------6---------6-----------6-----------6--------------|
4 -4-----------4-----------4---------4-----------4-----------4--------------|
5 -0-0-0-0-0-0-0-0-0-0-0-0-0-0-0-0-0-0-0-0-0-0-0-0-0-0-0-0-0-0-0-0-0-0------|
6 --------------------------------------------------------------------------|

1 ----------------------------------------------------------------------|
2 ----------------------------------------------------------------------|
3 -8-----------8-----------8-------8-------------8-----------8----------|
4 -6-----------6-----------6-------6-------------6-----------6----------|
5 -4-4-4-4-4-4-4-4-4-4-4-4-4-4-4-4-4-4-4-4-4-4-4-4-4-4-4-4-4-4-4-4-4----|
6 ----------------------------------------------------------------------|

1 ----------------------------------------------------------------------|
2 ----------------------------------------------------------------------|
3 --8-------------8-----------8-------8-----------8-------------8-------|
4 --6-------------6-----------6-------6-----------6-------------6-------|
5 --3-3-3-3-3-3-3-3-3-3-3-3-3-3-3-3-3-3-3-3-3-3-3-3-3-3-3-3-3-3-3-3-3-3-|
6 ----------------------------------------------------------------------|

1 ----------------------------------------------------------------------|
2 ----------------------------------------------------------------------|
3 -8-----------8-----------8-------8-------------8-----------8----------|
4 -6-----------6-----------6-------6-------------6-----------6----------|
5 -4-4-4-4-4-4-4-4-4-4-4-4-4-4-4-4-4-4-4-4-4-4-4-4-4-4-4-4-4-4-4-4-4----|
6 ----------------------------------------------------------------------|

1 --------------------------------------------------------------------------------|
2 --------------------------------------------------------------------------------|
3 --11------------11------------11------10------------10----------10--------------|
4 --9-------------9-------------9-------8-------------8-----------8---------------|
5 --7-7-7-7-7-7-7-7-7-7-7-7-7-7-7-7-7-7-6-6-6-6-6-6-6-6-6-6-6-6-6-6-6-6-6-6-------|
6 --------------------------------------------------------------------------------|

1 ----------------------------------------------------------------------|
2 ----------------------------------------------------------------------|
3 -8-----------8-----------8-------8-------------8-----------8----------|
4 -6-----------6-----------6-------6-------------6-----------6----------|
5 -4-4-4-4-4-4-4-4-4-4-4-4-4-4-4-4-4-4-4-4-4-4-4-4-4-4-4-4-4-4-4-4-4----|
6 ----------------------------------------------------------------------|

1 ----------------------------------------------------------------------|
2 ----------------------------------------------------------------------|
3 --8-------------8-----------8-------8-----------8-------------8-------|
4 --6-------------6-----------6-------6-----------6-------------6-------|
5 --3-3-3-3-3-3-3-3-3-3-3-3-3-3-3-3-3-3-3-3-3-3-3-3-3-3-3-3-3-3-3-3-3-3-|
6 ----------------------------------------------------------------------|

1 ----------------------------------------------------------------------|
2 ----------------------------------------------------------------------|
3 -8-----------8-----------8-------8-------------8-----------8----------|
4 -6-----------6-----------6-------6-------------6-----------6----------|
5 -4-4-4-4-4-4-4-4-4-4-4-4-4-4-4-4-4-4-4-4-4-4-4-4-4-4-4-4-4-4-4-4-4----|
6 ----------------------------------------------------------------------|

1 -------------------------------------------------------|
2 -------------------------------------------------------|
3 ------8----------------8-------8-------8---------------|
4 ------9--------9-------8-------8-------8---------------|
5 -7---------------------6-------6-------6---------------|
6 -------------------------------------------------------|


1 --------------------------------------------------------------------------------|
2 --------------------------------------------------------------------------------|
3 --3-----------------------------3-------------------5---------6-----------------|
4 --3-----------------------------3-------------------5---------6-----------------|
5 --1-1-1-1-1-1-1-1-1-1-1-1-1-1-1-1-1-1-1-1-1-1-1-1-1-3-3-3-3-3-4-4-4-4-----------|
6 --------------------------------------------------------------------------------|


1 --------------------------------------------------------------------------------|
2 --------------------------------------------------------------------------------|
3 -6-----------------------------8-------------6-----------5----------------------|
4 -6-----------------------------8-------------6-----------5----------------------|
5 -4-4-4-4-4-4-4-4-4-4-4-4-4-4-4-6-6-6-6-6-6-6-4-4-4-4-4-4-3-3-3-3----------------|
6 --------------------------------------------------------------------------------|

1 --------------------------------------------------------------------------------|
2 --------------------------------------------------------------------------------|
3 -4-------------------------------4-----------6-----------4----------------------|
4 -4-------------------------------4-----------6-----------4----------------------|
5 -4-4-4-4-4-4-4-4-4-4-4-4-4-4-4-4-4-4-4-4-4-4-6-6-6-6-6-6-4-4-4-4----------------|
6 --------------------------------------------------------------------------------|

1 --------------------------------------------------------------------------------|
2 --------------------------------------------------------------------------------|
3 -3-----------------------------3---------3-----------3--------------------------|
4 -3-----------------------------3---------3-----------3--------------------------|
5 -3-3-3-3-3-3-3-3-3-3-3-3-3-3-3-3-3-3-3-3-3-3-3-3-3-3-3-3-3-3--------------------|
6 --------------------------------------------------------------------------------|


1 --------------------------------------------------------------------------------|
2 --------------------------------------------------------------------------------|
3 --3-----------------------------3-------------------5---------6-----------------|
4 --3-----------------------------3-------------------5---------6-----------------|
5 --1-1-1-1-1-1-1-1-1-1-1-1-1-1-1-1-1-1-1-1-1-1-1-1-1-3-3-3-3-3-4-4-4-4-----------|
6 --------------------------------------------------------------------------------|


1 --------------------------------------------------------------------------------|
2 --------------------------------------------------------------------------------|
3 -6-----------------------------8-------------6-----------5----------------------|
4 -6-----------------------------8-------------6-----------5----------------------|
5 -4-4-4-4-4-4-4-4-4-4-4-4-4-4-4-6-6-6-6-6-6-6-4-4-4-4-4-4-3-3-3-3----------------|
6 --------------------------------------------------------------------------------|

1 --------------------------------------------------------------------------------|
2 --------------------------------------------------------------------------------|
3 -4-------------------------------4-----------6-----------4----------------------|
4 -4-------------------------------4-----------6-----------4----------------------|
5 -4-4-4-4-4-4-4-4-4-4-4-4-4-4-4-4-4-4-4-4-4-4-6-6-6-6-6-6-4-4-4-4----------------|
6 --------------------------------------------------------------------------------|


1 --------------------------------| ------------------------------------------|
2 --------------------------------| ------------------------------------------|
3 --3-----------------------------| ------------------------------------------|
4 --3-----------------------------| --3----3----3----3----3---3----3---3------|
5 --1-1-1-1-1-1-1-1-1-1-1-1-1-1-1-| --3----3----3----3----3---3----3---3------|
6 --------------------------------| --3----3----3----3----3---3----3---3------|

1 -----------------------------------------------------------------------------|
2 -----------------------------------------------------------------------------|
3 -----------------------------------------------------------------------------|
4 --/8-------/8--10---11-----11-----13----11----10-----4---8/10/8--7--7---8----|
5 -----------------------------------------------------------------------------|
6 -----------------------------------------------------------------------------|

1 --------------------------------------------------------------------------------------------|
2 --------------------------------------------------------------------------------------------|
3 ---------------------------------------------------------11----/15----15/17/15---14---15----|
4 --10----8---8----10-----11----11-----13----11----10-----------------------------------------|
5 -----------------------------------------------------11-------------------------------------|
6 --------------------------------------------------------------------------------------------|

1 ---------------------------------------------------------|
2 ---------------------------------------------------------|
3 ---------------------------------------------------------|
4 ---------10-----8---------------6-------8----------------|
5 ---------------------------------------------------------|
6 -8-8-8-------8------8---8-8---8-----8------8-------------|

1 ---------------------------------------------|
2 ---------------------------------------------|
3 ---------5------3----------------------------|
4 --------------------------------6------8-----|
5 ---------------------------------------------|
6 ---4-4-4------4-----4--4--4--4-----4------4--|

1 --------------------------------------------------------------------------------------------------|
2 --------------------------------------------------------------------------------------------------|
3 -----------------------------------------------------------3------3------------2------2-----------|
4 -----------6-----4-------------------6------4-----------------------------------------------------|
5 --------------------------------------------------------------------------------------------------|
6 --1--1--1-----1-----1-----1---1---1-----1------1---3-3-3-------3----3--3-3-3------3------3--------|


1 -----------------------------------------------------------------------------------------------------|
2 -----------------------------------------------------------------------------------------------------|
3 ----------------------------------------------------------5------3-----------------------------------|
4 ----------10-----8---------------6------8-----------------------------------------6----8-------------|
5 -----------------------------------------------------------------------------------------------------|
6 -8--8-8-------8----8-----8-8-8------8------8----4--4--4------4-----4-----4--4--4----4----4-----------|


1 --------------------------------------------------------------------------------------------------|
2 --------------------------------------------------------------------------------------------------|
3 ------------------------------------------------------------------------------------3-----2-------|
4 ---------6------4--------------6------4-------------3---------------------------------------------|
5 --------------------------------------------------------------------------------------------------|
6 --1-1-1-----1------1----1-1-1-----1------1---3-3-3----------3--3--3--3--3--3--3--3-----3----------|

1 --------------------------------------13/18--13------13-----------------------------------------/18------|
2 ----------------14-----------------14------------14-----14-----------------------------------------------|
3 -------------15----15-----------15-------------------------15--------------------------------------------|
4 ----------15----------15-----15-------------------------------15----15-----15-----15\13/15---------------|
5 -/13---16----------------16--------------------------------------16--------------------------------------|
6 ---------------------------------------------------------------------------------------------------------|


1 --16--14/16\14-------------18---16--14/16\14-------------------------13/14\13----13-------------|
2 -----------------16----16---------------------16------------------------------16----------------|
3 --------------------15---------------------------15----15---------------------------------------|
4 ----------------------------------------------------16----------14------------------------------|
5 ------------------------------------------------------------------------------------------------|
6 ------------------------------------------------------------------------------------------------|

1 --18\14--14--14--18\11-11-18-------------------------------------13-14----13-11-13-11-9-11-9-----------------------------------|
2 -----------------------------14--14--14--13/14\13------13/14/16------------------------------13----11/14\13\11-15--13----------|
3 ---------------------------------------------------15--------------------------------------------------------------------------|
4 -------------------------------------------------------------------------------------------------------------------------------|
5 -------------------------------------------------------------------------------------------------------------------------------|
6 -------------------------------------------------------------------------------------------------------------------------------|

1 -----------11--13-----13----18----17----21---20-----20------18------------------------------------|
2 -/18--16------------------------------------------------------------------------------------------|
3 -----------8---10-----10----15----14----18---17-----17------15------------------------------------|
4 -/15--13----------------------------------------------------------------------7------10-----------|
5 ----------------------------------------------------------------------6----8----------------------|
6 --------------------------------------------------------------------------------------------------|


1 -----------------------------------------------------------------------------11\10/11------7/10/11\10\7/10------------|
2 ---------------------------------------------------------------------------------------10--------------------10-------|
3 ----------------------------------------------------------------------------------------------------------------------|
4 --8------8----10----11------11----13---11----10------11--------7------10----------------------------------------------|
5 ----------------------------------------------------------------------------------------------------------------------|
6 --8------8----10----11------11----13---11----10------11--------7------10----------------------------------------------|


1 ---------------------------------------------13---10-13---9--------------------14---13---11---------------|
2 ------------------------------------------x------------------10------10-----------------------------------|
3 --11/10\8/10\8------10\8--------------10-----------------------------------9---11---10----8---------------|
4 ----------------11--------11\8--8/11----------------------------------------------------------------------|
5 ----------------------------------------------------------------------------------------------------------|
6 ----------------------------------------------------------------------------------------------------------|

1 -----------------------------------------------------------9--14--9-----9----------------------------------------------|
2 --14---13----11---------------------------------11-----11------------11----11------------------------------------------|
3 --------------------14---11----14----11---10-----------------------------------14-11-14-11-10-11-10-----------10-------|
4 --11---10----8-----------------------------------8---------------------------------------------------13-11-13----------|
5 --------------------12---9-----12----9-----8---------------------------------------------------------------------------|
6 -----------------------------------------------------------------------------------------------------------------------|

1 --------------14-----------------14-18-------------14-18--17-----21---20----18----17---14----13--------11----13---14--|
2 --------11-14----14-11-----11-14--------19-16-------------------------------------------------------------------------|
3 --11-14----------------14---------------------18-----------------18---17----15----14---11----10--------8-----10---11--|
4 ----------------------------------------------------------------------------------------------------------------------|
5 ----------------------------------------------------------------------------------------------------------------------|
6 ----------------------------------------------------------------------------------------------------------------------|


1 -18-----------------------------------------------------------------------------------------------|
2 --------------------------------------------------------------------------------------------------|
3 -15----------------6-----------------------------8-------------6-----------5----------------------|
4 -------------------6-----------------------------8-------------6-----------5----------------------|
5 -------------------4-4-4-4-4-4-4-4-4-4-4-4-4-4-4-6-6-6-6-6-6-6-4-4-4-4-4-4-3-3-3-3----------------|
6 --------------------------------------------------------------------------------------------------|

1 --------------------------------------------------------------------------------|
2 --------------------------------------------------------------------------------|
3 -4-------------------------------4-----------6-----------4----------------------|
4 -4-------------------------------4-----------6-----------4----------------------|
5 -4-4-4-4-4-4-4-4-4-4-4-4-4-4-4-4-4-4-4-4-4-4-6-6-6-6-6-6-4-4-4-4----------------|
6 --------------------------------------------------------------------------------|


1 --------------------------------------------------------------------------------|
2 --------------------------------------------------------------------------------|
3 -3-----------------------------3---------3-----------3--------------------------|
4 -3-----------------------------3---------3-----------3--------------------------|
5 -3-3-3-3-3-3-3-3-3-3-3-3-3-3-3-3-3-3-3-3-3-3-3-3-3-3-3-3-3-3--------------------|
6 --------------------------------------------------------------------------------|

1 --------------------------------------------------------------------------------|
2 --------------------------------------------------------------------------------|
3 --3-----------------------------3-------------------5---------6-----------------|
4 --3-----------------------------3-------------------5---------6-----------------|
5 --1-1-1-1-1-1-1-1-1-1-1-1-1-1-1-1-1-1-1-1-1-1-1-1-1-3-3-3-3-3-4-4-4-4-----------|
6 --------------------------------------------------------------------------------|

1 --------------------------------------------------------------------------------|
2 --------------------------------------------------------------------------------|
3 -6-----------------------------8-------------6-----------5----------------------|
4 -6-----------------------------8-------------6-----------5----------------------|
5 -4-4-4-4-4-4-4-4-4-4-4-4-4-4-4-6-6-6-6-6-6-6-4-4-4-4-4-4-3-3-3-3----------------|
6 --------------------------------------------------------------------------------|

1 --------------------------------------------------------------------------------|
2 --------------------------------------------------------------------------------|
3 -4-------------------------------4-----------6-----------4----------------------|
4 -4-------------------------------4-----------6-----------4----------------------|
5 -4-4-4-4-4-4-4-4-4-4-4-4-4-4-4-4-4-4-4-4-4-4-6-6-6-6-6-6-4-4-4-4----------------|
6 --------------------------------------------------------------------------------|


1 --------------------------------------------------------------------------------| --------------------------|
2 --------------------------------------------------------------------------------| --------------------------|
3 -3-----------------------------3---------3-----------3--------------------------| --------3---2-----2-------|
4 -3-----------------------------3---------3-----------3--------------------------| -1--0---3---2--4--2-------|
5 -3-3-3-3-3-3-3-3-3-3-3-3-3-3-3-3-3-3-3-3-3-3-3-3-3-3-3-3-3-3--------------------| -1--0---1---0--4--0-------|
6 --------------------------------------------------------------------------------| -1--0----------4----------|



1 ------------------------------|
2 ------------------------------|
3 --5---------------6-----------|
4 --3---------------3-----------|
5 --1---------------1-----------|
6 ------------------------------|





Calificar esta versión:
Aviso: Este fichero es trabajo propio de su transcriptor y representa su interpretación personal de la canción. El material contenido en esta página es para exclusivo uso privado, por lo que se prohibe su reproducción o retransmisión, así como su uso para fines comerciales.