Su Hombre Soy Yo, Prince Royce (tablatura)

Autor: SoyVicente | 36026 visualizaciones



e|-------------------------------------------------|
B|-------------------------------------------------|
G|-6-4-4-2-4-2----2-1-2---2-4-6-9-9-7-7-6-6-4-------|
D|-------------------------------------------------|
A|-------------------------------------------------|
E|-------------------------------------------------|

e|----------------------------------------------------------|
B|----------------------------------------------------------|
G|-6-4-4-2-4-2----2-1-2---2-4-6-9-9-7-7-6-4-6-4-2-1-6-4-2-1-|
D|----------------------------------------------------------|
A|----------------------------------------------------------|
E|----------------------------------------------------------|


    La
sabes que te quiero (te quieroo)
                  Fa#m
que por ti me muero (me mueroo)
                Re
es el sentimiento (haaa!)
                 Mi
que siento por dentro
       La
tu sabes que te quiero (te quieroo)
              Fa#m
que te quiero mas (que eeel)
              Re
yo estaba primero (haaa!
             Mi
prometo amor eteeernoo

              La
tu sabes que eres mia
          Re
solo solo mia
            La                Mi
y yo soy tu dueño, tu amor perfecto
                La
tu sabes que eres mia
         Re
solo solo mia
         La           Mi
y nadie podrá? alejarme maas



                      (royce!)
e|-----------------------------------------------------|
B|-5/7-7-7---5-3-5-7-5----5/7-7-7-12-10-7-5-7-5-7-5-3-7|
G|-----------------------------------------------------|
D|-----------------------------------------------------|
A|-----------------------------------------------------|
E|-----------------------------------------------------|

e|---------------------------------------|
B|-5-3-2-0-------------------------------|
G|---------------------------------------|
D|---------------------------------------|
A|---------------------------------------|
E|---------------------------------------|

(hayrairairaira)
(hayrairairaira)

   La
el te habla mentiras (mentiras)
              Fa#m
muchas fantasias (ha ha ha!)
              Re
el es un ingrato (haaa!)
             Mi
un hombre barato
  La
no me faltes el respeto (respeto)
                    Fa#m
tu sabes que eres mia (ha ha ha!)
                          Re
y que en la cama soy tu dueño (haaa!)
                  Mi
que complace tus deseos

                   La
tu sabes que eres mia
          Re
solo solo mia
            La               Mi
y yo soy tu dueño, tu amor perfecto


    La               Re
(ella es mia mia mia, mia mia mia)
           La                Mi
yo soy su dueño, su amor perfecto
    La               Re
(ella es mia mia mia, mia mia mia)
           La                Mi
yo soy su dueño, su amor perfecto





Calificar esta versión:
Aviso: Este fichero es trabajo propio de su transcriptor y representa su interpretación personal de la canción. El material contenido en esta página es para exclusivo uso privado, por lo que se prohibe su reproducción o retransmisión, así como su uso para fines comerciales.