Sigo Buscando Respuestas, Porta (acordes)

Autor: felipe_l1395 | 35707 visualizaciones

aki felipe_l1395 les dejo esta  comente voten si les gusta y si no tambien

|------------------------------------------
|--------4---5---4-----------4---5---4-----
|------------------------------------------
|------6---6---6---6-------6---6---6---6---
|---4-------------------4------------------
|------------------------------------------

|------------------------------------------
|--------4---5---4-----------4---5---4-----
|------------------------------------------
|------6---6---6---6-------6---6---6---6---
|------------------------------------------
|---7------------------7-------------------

|------------------------------------------
|--------4---5---4-----------4---5---4-----
|------------------------------------------
|------6---6---6---6-------6---6---6---6---
|------------------------------------------
|---5------------------5-------------------

|------------------------------------------
|--------4---5---4-----------4---5---4-----
|------------------------------------------
|------6---6---6---6-------6---6---6---6---
|------------------------------------------
|---4------------------4-------------------

Guitarra II

|---4---11-9-4---------4---11-9-4---2-4---2-9---
|----------------4-5-7------------------4-------
|-----------------------------------------------
|-----------------------------------------------
|-----------------------------------------------
|-----------------------------------------------

|---12-11-9---12-11-9-9---12-11-9---12-11-9-----
|-----------------------------------------------
|-----------------------------------------------
|-----------------------------------------------
|-----------------------------------------------
|-----------------------------------------------



comenten votenn me costo mucho acerla

comenten 

felipe_l1395@hotmail.com




f?l¡p3_l@g0$$

Comentarios del colaborador: comenteeeeeennn

Calificar esta versión:
Aviso: Este fichero es trabajo propio de su transcriptor y representa su interpretación personal de la canción. El material contenido en esta página es para exclusivo uso privado, por lo que se prohibe su reproducción o retransmisión, así como su uso para fines comerciales.