Dragon Ball, Porta (tablatura)

Autor: maxXx | 44565 visualizaciones

aqui les dejo esta tab espero que les guste

|------11-13-13-13---15-16-15-13----11-13-11-13---
|---13--------------------------------------------
|-------------------------------------------------
|-------------------------------------------------
|-------------------------------------------------
|-------------------------------------------------

|----------8---6---4-3-----------------------
|--------9---------------6-4-4-----1-----1---
|------8-----------------------5-----3-3-----
|---10---------------------------------------
|--------------------------------------------
|--------------------------------------------

fuente. lacuerda.net
Calificar esta versión:
Aviso: Este fichero es trabajo propio de su transcriptor y representa su interpretación personal de la canción. El material contenido en esta página es para exclusivo uso privado, por lo que se prohibe su reproducción o retransmisión, así como su uso para fines comerciales.