Trains, Porcupine Tree (acordes)

Autor: franco maxi | 27909 visualizaciones

aa7amam7ccmaj7ddsus2emfmaj7


Esta es una gran canción de esta gran banda escuchenla $$$$$$

[Capo 5th
Intro:Repeat for verse

verse
e|---------------|---------------------------|-0---0-0-0----||
B|-3---3-3-3-3-3-|-3---3-3-0---3---3-3-0-3-0-|-0---0-0-3----||
G|-0---0h2-0h2-0-|-0---0-0-0---0---0h2-0h2-0-|-0---0-0-0----||
D|-0---0---0---0-|h2---2-2-2---0---0-0-0-0-0-|-2---2-2------||
A|---------------|h3---3-3-3-----------------|-2---2-2------||
E|---------------|---------------------------|-0---0-0------||

prechorus
e|--------0-0-0-|-0-0--0-0--0-0-0----------|-0-----------0--||
B|-1-1--1-2-2-2-|-2-1--1-1--1-0-0--3-3-3-3-|-3--3-3-3-3--0--||
G|-0-0--0-0-0-0-|-0-0--0-0--0-0-0--0h2-0h2-|-0--0h2-0h2--0--||
D|-2-2--2-2-2-2-|-2-2--2-2--2-2-2--0-0-0-0-|-2--0-0-0-0--2--||
A|-3-3--3-0-0-0-|-0-0--0-0--0-2-2----------|-3-----------2--||
E|-3-3--3-------|-------------0-0----------|-0-----------0--||

chorus  [simplified, strumming is easy to follow playing with CD]  Upstroke then change to next 

chord quickly!



e|--0-0-0-0---|-0-0-0-0--|-2-2-------|------||
B|--2-2-1-1---|-1-1-0-0--|-3-3--2----|-1-0--||
G|--2-2-2-2---|-0-0-0-0--|-2-2--2----|-0-0--||
D|--2-2-2-2---|-2-2-2-2--|-0-0--2----|-2-2--||
A|--0-0-0-0---|-3-3-2-2--|------0----|-3-3--||
E|------------|-3-3-3-3--|-----------|-3-3--||



[Dsus2]--------[C]---------[Dsus2]----[Em]--[Dsus2]- 
 

---[C]--------[Dsus2]--[Em]


---[Dsus2]----------[C]----[Dsus2]-------[Em]

[C]---------[A7]---------[Am7]---[Em]


[A]----[Am]--[C]------[Cmaj7]-------[D]-----[A]-[C]-[Cmaj7]


[Dsus2]----[C]--[Dsus2]-----[Em]---[Dsus2]------- 

[C]------[Dsus2]-[Em]

[C]------------[A7]-------[Am7]-----[Em]



[A]----[Am]--[C]------[Cmaj7]-------[D]-----[A]-[C]-[Cmaj7]


[A]-[Am]---[C]--[Cmaj7]-[D]-------[A]---[C]-[Cmaj7]


Cmaj7 - Fmaj7 [Repeat X times then play second line]

       
|-------------0|--------------|-------------|-0------------|
|----------0---|---0----------|------3------|-----3--------|
|-------0----0-|-0-----0-----.|----2---2---2|---2---2---2--|
|-----2---2----|-----2---2---.|0h3-------3--|---------3----|
|-0h3----------|--------------|-------------|--------------|
|--------------|--------------|-------------|--------------|

|-1------------|--0-----------|
|-----3--------|-----3--------|
|---2---2---2--|---2---2---2--|
|---------3----|---------3----|
|--------------|--------------|
|--------------|--------------|



|--------------|--------------|----------------|------------------|
|----------1---|--------1-----|-----------3----|---------3--------|
|-------4----4-|------4----4-.|-------0-----0--|------0-----0----.|
|-----2---2----|----2----2---.|-----4---4------|----4---4--------.|
|-0h3----------|-3------------|--2-------------|-2----------------|
|--------------|--------------|----------------|------------------|


D

|--------------|2------2----3-|------/5---2-|-------2---0-------0--|
|-----3---3----|----3---------|---3---------|---3-----------3------| 
|---2---2---2--|--2---2--2----|-2---2---2---|-2---2---2---2---2---2|
|-0------------|0-----------0-|-----------0-|-----------0----------|
|--------------|--------------|-------------|----------------------|
|--------------|--------------|-------------|----------------------|

|--------------|--------------|
|----------1---|--------1-----|
|-------4----4-|------4----4-.|
|-----2---2----|----2----2---.|
|-0h3----------|-3------------|
|--------------|--------------|



[A]--------------[Am]-----------[C]-------[Cmaj7]---- 



[D]--------[A]------------[C] [Cmaj7]

[A]---------------[Am]----------------[C]---[Cmaj7] 
 -----D------A--------C Cmaj7





Comentarios del colaborador: aaaaaaaaaaaaaaaaaaaaaaaa

Calificar esta versión:
Aviso: Este fichero es trabajo propio de su transcriptor y representa su interpretación personal de la canción. El material contenido en esta página es para exclusivo uso privado, por lo que se prohibe su reproducción o retransmisión, así como su uso para fines comerciales.