Last Chance To Evacuate Planet Earth Before It Is Recycled, Porcupine Tree (tablatura)

Autor: franco maxi | 18637 visualizaciones



afinacion :E A D G B e

INTRO

  D      |C      |F       |G       |
e|-10------8--7----1--------3-------|
B|-7-------5--5----1--------3-------|
G|-7-------5--5----2--------4-------|
D|-7-------5--5----3--------5-------|         x2
A|-----------------3--------5-------|
E|-----------------1--------3-------|

  D              |C              |F          |G                |
e|--------------------------------------------------------8(8)8-|
B|-------------8-8/10-8-----------------------6-5---5-6-8-------|
G|-----5--7-------------7--5----------------5-----7-------------|
D|--5h7----------------------7-3---------5h7--------------------|
A|-------------------------------3-3/5-5------------------------|
E|--------------------------------------------------------------|

   D              |C          |F           |G                  |
e|-8s10--------8---8---10-----------------------------------------|
B|-----10(10)---10--10----------------------6----6(6)-8-6-6s5-----|
G|-------------------------------------------5s7--------------5s7-|
D|----------------------------------------------------------------|
A|----------------------------------------------------------------|
E|----------------------------------------------------------------|
-----2-----3-----3-----0---------------------------------|
-----3-----3-----3-----6---------------------------------|
-----2-----0-----0-----5---------------------------------|
-----0-----2-----0-----0---------------------------------|
-----0-----3-----2-----x---------------------------------|
-----x-----x-----3-----x---------------------------------|

     D     C9    G     ?

And this is what i got of the final section...

-----x-x-x-x---x-x-x-x---x-x-x-x---x-x-x-x---------------|
-----x-x-x-x---x-x-x-x---x-x-x-x---x-x-x-x---------------|
-----7-7-7-7---7-7-7-7---7-7-7-7---7-7-7-7---------------|
-----7-7-7-7---7-7-7-7---7-7-7-7---7-7-7-7---------------|
-----5-5-5-5---5-5-5-5---x-x-x-x---x-x-x-x---------------|
-----x-x-x-x---x-x-x-x---6-6-6-6---6-6-6-6---------------|


-----x-x-x-x---x-x-x-x---x-x-x-x---x-x-x-x---------------|
-----x-x-x-x---x-x-x-x---x-x-x-x---x-x-x-x---------------|
-----7-7-7-7---7-7-7-7---7-7-7-7---7-7-7-7---------------|
-----7-7-7-7---7-7-7-7---7-7-7-7---7-7-7-7---------------|
-----x-x-x-x---x-x-x-x---x-x-x-x---x-x-x-x---------------|
-----7-7-7-7---7-7-7-7---6-6-6-6---6-6-6-6---------------|





Calificar esta versión:
Aviso: Este fichero es trabajo propio de su transcriptor y representa su interpretación personal de la canción. El material contenido en esta página es para exclusivo uso privado, por lo que se prohibe su reproducción o retransmisión, así como su uso para fines comerciales.