Desastre, Pol Granch (acordes)

Autor: ThePhenomV | 9381 visualizaciones

a7sus4emg


Capo en 2º traste  
 
Em         A7sus4        G           D4                
E------------------------------------------------  
B-------0----------3-------3------------3---3----  
G-----0--0-------0-----------0---------2-2-------  
D------------------------0-----------0-----0-----  
A--2----------3----------------------------------  
E----------------------3-------------------------  
 
Em         A7sus4        G           D4                
E------------------------------------------------  
B-------0----------3-------3------------3--------  
G-----0--0-------0-----------0---------2-2-------  
D------------------------0-----------0-----------  
A--2----------3----------------------------------  
E----------------------3-------------------------  
 
 
Arpegio: Em A7sus4 G D4       
 
No me arrepiento de las cosas  
Que hemos hecho, ¿sabes?  
Estar tirados todo el rato con el alma por las nubes  
¿Cómo se lo explicas eso a alguien?  
No sé     
Je ne te connais pas toi  
C'est le temps qui passe qui me dit comment t'aimer  
Je ne te connais pas mais  
Comment t'inventer  
Si c'est pas pour t'aimer et donne-moi ta main  
On se trouvera quand même  
On va prendre le temps d'y croire  
Et sans avoir de peine  
On l'a eu des milliers de fois  
 
Em               A7sus4        G       D4  
Un desastre sin nombre la cara y cruz y  
Em               A7sus4        G       D4  
Y aaah, ansiosos de tiempo  
Em               A7sus4        G       D4  
Un desastre sin nombre de sombra y luz  
Em               A7sus4        G       D4  
Y aaah, hambrientos de intentos y tú, y tú y siempre tú  
Em               A7sus4        G       D4  
Y tú, y tú y siempre tú  
 
Se repite toda la canción, alternando con arpegio y ritmo cortado.





Comentarios del colaborador: Capo en traste 2

Calificar esta versión:
Aviso: Este fichero es trabajo propio de su transcriptor y representa su interpretación personal de la canción. El material contenido en esta página es para exclusivo uso privado, por lo que se prohibe su reproducción o retransmisión, así como su uso para fines comerciales.