Unskinny Bop, Poison (tablatura)

Autor: diamond | 39354 visualizaciones

bien escuchenla procuren tocarla con acustica  xqe asi la saque pero se escucha bien

primero es la bateria luego ya es la guitarra

6|-2------------|
5|---3-4--------|
4|-------2-4----|
3|-----------2--|
2|--------------|
1|--------------|

esto se hace muy rapido bueno a qe suene perecido

6|-----------------------------|
5|-12~~~~~~~~~~~~~~2-4--4-3-2--|
4|----------------------5-4-3--|
3|-----------------------------|
2|-----------------------------|
1|-----------------------------|
Calificar esta versión:
Aviso: Este fichero es trabajo propio de su transcriptor y representa su interpretación personal de la canción. El material contenido en esta página es para exclusivo uso privado, por lo que se prohibe su reproducción o retransmisión, así como su uso para fines comerciales.