Guitarras De Amor, P.o.d (tablatura)

Autor: jaak54 | 17792 visualizaciones



--------------------------------------------------------------------------------------------|
--------------------------------------------------------------------------------------------|
------------------------------5-5-----7-7---------------------------------------5-5----7-7--|
------------9------------9-----------------------------------9---------------9--------------|
-------7-------7--7-7--------------------------------7----------7---7-7---------------------|
--------------------------------------------------------------------------------------------|

--------------------------------------------------------------------------------------------|
--------------------------------------------------------------------------------------------|
-----------------------------5-5----7-7-----9-9-----7-7-------------------------------------|
---------9------------9---------------------------------------------------------------------|
--7--------7--7-7---------------------------------------------------------------------------|
--------------------------------------------------------------------------------------------|


-----------------------------------------------------------------------------------|
--12----12-12-12-----13-13-13h15-----15p13p12-----12---13-------------12--13-------|
X--------------------------------------------------------X-------14----12--x-------|
-----------------------------------------------------------------------------------|
-----------------------------------------------------------------------------------|
-----------------------------------------------------------------------------------|


---------------|
-x-------------|
--14-----------|
---------------|
---------------|
---------------|

----------------------------------------------------------------------------------|
------12---------------------12----13-----------12--13-13--12---------------------|
--14-----14--12------------X--------------12----------------------12--12h14-------|
----------------------------------------------------------------------------------|
----------------------------------------------------------------------------------|
----------------------------------------------------------------------------------|


---------------------|
---------------------|
---14---12-----------|
---------------------|
---------------------|
---------------------|


-------------------------------------------------------------------------------------|
-------------------------------------------------------------------------------------|
--12---12-12---10---9---10----9----9-10-12-10-9h10p9---9------9h10p9--9------9h10-9--|
-------------------------------------------------------------------------------------|
-------------------------------------------------------------------------------------|
-------------------------------------------------------------------------------------|





Calificar esta versión:
Aviso: Este fichero es trabajo propio de su transcriptor y representa su interpretación personal de la canción. El material contenido en esta página es para exclusivo uso privado, por lo que se prohibe su reproducción o retransmisión, así como su uso para fines comerciales.