No Hierve Tu Sangre, Platero Y Tú (tablatura)

Autor: Anónimo | 41629 visualizaciones

INTRO:

Guitarra (Con distorsión)

e-----------------------------------------------------------
b-----------------------------------------------------------
g-----5-----5-----5-----5-----5---------------------------
d-----5-----5-----5-----5-----5---(x4)--------------------
a--3----3-3---3-3---3-3---3-3------------------------------
e---------------------------------------------------------

INTRO 2

 DO5               LA5                SOL5
e-----------------------------------------8-8p7-8-8p7-------------
b--6-6p5-6-6p5---------6-6p5-6-6p5--------8-8p8-8-8p7--------------
g-------------------------------------------------------------
d-------------------------------------------------------------
a--------------3-3-2---------------3p2------------------------
e--------------------5-----------------3-----------------------

 FA5                                         DO5
e----------------------------8----13-12-(10-8-8)------------------------
b-----------------------10-8---12------------------------------
g------------10-9-12-10----------------------------------------------
d-10-9-12-10------------------------------------(x2)-------------------
a-------------------------------------------------------------
e------------------------------------------------------------

Lo que está entre paréntesis es porque cuando se repite por segunda vwz
en vez de eso hace esto e------8--------
                        b-8h10-------------

ESTROFA 1

DO5               LA5                      SOL5
Chico cambia de nariz yo te ayudaré a triunfar
                FA5                        DO5
salgas en televisión o hasta en radio nacional
                       LA5             SOL5
y ahora canta esta canción tralaralorilora
                      FA5
no es muy buena ya lo sé pero se puede vender

riff 1

 DO5    SOL5   FA5                  DO 
e------------------------------------------------------------
b------------------------------------1-------------------------
g------------------------------------0-------------------------
d----2---------(2h3-3-3-3-3-2-0------2-)----------------------------------
a--3---3---2--------------------2-3--3------------------------------
e--------3---3-------------------------------------------------

ESTROFA 2 (acordes iguales que el anterior)

Siempre te ha gustado más el cuero que el rock'n roll
y salir a vacilar que escribir una canción
a ese chico has engañao con su foto en tu pared
y has cortado el bacalao antes de tirar la red

riff 1

lo del parentesis es esto, a la segunda vuelta toca esto:

e------------------------------------------------------------
b------------------------------------------------------------
g-5p2---2---------------------------------------------------------
d-----5---5p2-----------------------------------------------------
a-------------5p3--------------------------------------------
e-----------------5------------------------------------------

(golpe seco)

LA5    G5G5G5  LA5     G5G5G5  LA5      G5G5G5
No importa,    que mientas,     que engañes
FA5            SOL5
que no sientas nada por el rock'n roll


SOLO (Con los acordes de las estrofas)

No importa...

DO5        LA5          SOL5       FA5
Que mientas, que engañes, no hierve tu sangre (x2)


DO5
Tu te crees que yo te envidio por sonar en los 40
LA5
la verdad no me das miedo ahora solo me das pena
SOL5
tanta foto, tanta pose, tanta tanta tontería
FA5
cuelgate una piedra al cuello y ahora tirate a la ria

INTRO 2

Y acaba así: DO5  SOL5 DO5 SOL5 DO5 SOL5 DO5

y empieza JULIETTE
Calificar esta versión:
Aviso: Este fichero es trabajo propio de su transcriptor y representa su interpretación personal de la canción. El material contenido en esta página es para exclusivo uso privado, por lo que se prohibe su reproducción o retransmisión, así como su uso para fines comerciales.