Entrando Cruzado, Platero Y Tú (tablatura)

Autor: Anónimo | 22358 visualizaciones

   Empieza el bajo tocando un sol a toda máquina, y después dispara la guitarra (un pelín antes de 
empezar el riff introductorio se oye SOL5):

e------------------------------------------------------------------------------------------------
B----------4--------------------------------------------4----------------------------------------
G--5-5&3------5-5&3-------5-5&3-----------------5-5&3------5-5&3-------5-5&3---------------------
D--------5----------5-----------5-4-3&4---------------5----------5-----------5--3&4&5-3&4&5&4&3--
A---------------------3------------------6-3-----------------------3----------------------------3
E------------------------------------------------------------------------------------------------
           +          +                                 +          +  (y así sucesivamente)

e----------------------------------------------------------------------------------------------
B----------4---------------------------------------------4-------------------------------------
G--5-5&3------5-5&3-------5-5&3------------------5-5&3-----5-5&3--------5-5&3------------------
D--------5----------5-----------5-4-3&4----------------5---------5------------5----3-4-5-------
A---------------------3------------------6-3-----------------------3---------------3-4-5-------
E----------------------------------------------------------------------------------1-2-3-------

e--------------------------------------------
B--------------------------------------------
G------------------3-4-5---------------------
D--3-4-5---3-4-5---3-4-5---------------------
A--3-4-5---3-4-5---1-2-3---------------------
E--1-2-3---1-2-3-----------------------------

e------------------------------------------------------------------------------------------------
B----------4--------------------------------------------4----------------------------------------
G--5-5&3------5-5&3-------5-5&3-----------------5-5&3------5-5&3-------5-5&3---------------------
D--------5----------5-----------5-4-3&4---------------5----------5-----------5--3&4&5-3&4&5&4&3--
A---------------------3------------------6-3-----------------------3----------------------------3
E------------------------------------------------------------------------------------------------

e------------------------------------------------------------------------------------------------
B----------4---------------------------------------------4---------------------------------------
G--5-5&3------5-5&3-------5-5&3------------------5-5&3-----5-5&3--------5-5&3--------------------
D--------5----------5-----------5-4-3&4----------------5---------5------------5-3&4&5-3&4&5&4&3--
A---------------------3------------------6-3-----------------------3----------------------------3
E------------------------------------------------------------------------------------------------


 DO5                     LA#5-DO5                            LA#5-DO5
   Dirás que todo es muy moderno y que lo tengo que entender.
                            LA#5-DO5
   De todo lo que huele a viejo me tendre que desprender;
 DO5                         LA#5-DO5                      LA#5-DO5
   y yo que siempre entro cruzado en ese ritmo que bailais.
                                LA#5-DO5                        FA5-FA#5-SOL5
   Tal vez me he quedado anticuado o es que me faltan megabites.

 (Riff A)

e----------------------------------------------------------------------------------------
B----------------------3--------------------------------------------------------------3--
G----------------------3-----------------------5b--3---3------------------------------3--
D--5-5&3--------5-5&3-----5-5&3--------5-5&3---5b----5----3-------5-5&3--------5-5&3-----
A--------5-(5)------------------5-(5)--------5--------------3-----------5-(5)------------
E-----------3----------------------3-----------------------(3)-------------3-------------


e----------------------------------------------------------------------------------
B----------------------------4---------------------------------------4-------------
G-----------3-4-5----5-5&3-----5-5&3-------5-5&3--------------5-5&3----5-5&3-------
D--5-5&3----3-4-5----------5----------5----------5-4-3&4------------5--------5-----
A-----------1-2-3-----------------------3----------------6-3------------------3----
E--------3-------------------------------------------------------------------------

e-------------------------------------------------------------------
B-------------------------------------------------------------------
G---5-5&3-----------------------------------------------------------
D---------5-3&4&5-3&4&5&4&3-----------------------------------------
A---------------------------3---------------------------------------
E-------------------------------------------------------------------

 DO5                              LA#5-DO5                    LA#5-DO5
   Tu dices que esto es el progreso, y yo que vamos para atrás;
                             LA#5-DO5
   el hombre cada vez más sabio y cada vez más animal.
 DO5                         LA#5-DO5                      LA#5-DO5
   y yo que siempre entro cruzado en ese ritmo que bailais.
                               LA#5-DO5                         FA5-FA#5-SOL5
   Tal vez me he quedado anticuado o es que me faltan megabites.


   (Repetir riff A, y luego solo del Iñaqui, sobre DO5-LA#5-DO5, preparando el camino a Robe)

  
    DO5                    LA#5-DO5    
   Compré un ordenador con la paga de un mes
 LA#5-DO5              LA#5-DO5
   y el amplificador lo vendí al dia después.
     DO5                 LA#5-DO5
   Muy pronto de la red me querían echar...
 LA#5-DO5           LA#5-DO5         FA5-FA#5-SOL5
   mi familia y toda la humanidad...
 
 Riff B (variación riff A) 
   Y fue solo el principio.


   Ya comprendí la situación: hermano soy de Mari o Bros

 Riff B
 
e----------------------------------------------------------------------------------------
B----------------------3--------------------------------------------------------------3--
G----------------------3-----------------------5b--3---3------------------------------3--
D--5-5&3--------5-5&3-----5-5&3--------5-5&3---5b----5----3-------5-5&3--------5-5&3-----
A--------5-(5)------------------5-(5)--------5--------------3-----------5-(5)------------
E-----------3----------------------3-----------------------(3)-------------3-------------


e----------------------------------------------------------------------------------------------
B----------------------------4-------------------------------------4---------------------------
G-----------3-4-5----5-5&3-----5-5&3-------5-5&3-----------5-5&3------5-5&3------5-5&3---------
D--5-5&3----3-4-5----------5----------5--------------------------5----------5------------------
A-----------1-2-3-----------------------3-------------------------------------3----------------
E--------3---------------------------------------0-1-2-3-------------------------------0-1-2-3-
                             +          +                          +          +

                                                            ***********************************

  Ir tocando *** mientras Robe canta "Ya comprendí la situación, hermano soy de Mari o Bros)



 Y para acabar:
                                haciendo un bending, más acentuado en la 2a cuerda
                                                      |
e----------------------------------------------------------------
B-----------------------------------------------------4----------
G-------------------------------------------5-5&3-----4----(5)---
D-------------------------------------------------5--------(5)---
A------------------------------------10/-------------------(3)---
E-0-1-2-3--2-3-4-5--3-4-5-6--4-5-6-7--8/-------------------------
                                      |                    pm
                                    slide
                                 descendente

 / slide
 B bend
 + vibrato
 & ligado  


 Dedicada a los Chemical Brothers, a ver si aprenden a hacer algo
que se parezca a música...
Calificar esta versión:
Aviso: Este fichero es trabajo propio de su transcriptor y representa su interpretación personal de la canción. El material contenido en esta página es para exclusivo uso privado, por lo que se prohibe su reproducción o retransmisión, así como su uso para fines comerciales.