Our Time Now, Plain White T´s (tablatura)

Autor: RiiKardhO | 23216 visualizaciones



?Oh oh oh oh oh...?
Intro and Choruses:
|---------------------------------------------------------------|
|---------------------------------------------------------------|
|------5--------------------------------------------------------|
|------5-x8--3--------5--------2------3----------5--------------|
|------3------3?x8--5?x4--2-x4--3---x4----5?x4------------------|
|-------------1---------3--------0------1----------3------------|

Verse:
|---------------------------------------------------------------|
|---------------------------------------------------------------|
|------5------------------------ -------------------------------|
|------5-x8--3--------5--------2-------3----------5-------------|
|---- -3------3?x8--5?x4--2-x4- -3---x4----5?x4-----------------|
|-------------1---------3--------0------1----------3------------|
        XXXXXXXXXXXXXXXXXXXXXXXXXX

Chorus

|---------------------------------------------------------------|
|---------------------------------------------------------------|
|------5--------------------------------------------------------|
|------5-x8--3--------5--------2------3----------5--------------|
|------3------3?x8--5?x4--2-xf- -3---x4----5?x4-----------------|
|-------------1---------3--------0------1----------3------------|

Verse, Chorus: same as above

Bridge 1:
|--------------------------------------|
|--------------------------------------|
|-----5---------11---------- ----------|
|-----x---x8-------x-----x8------------|
|-----3----------9---------------------|   x2
|--------------------------------------|

Stupid gay part?
Chorus 2: same as before but play the first 3 chords once with vibrato

Bridge 2: (starts after the gay part)

|---------------------------------------------------------------|
|---------------------------------------------------------------|
|----5-------------------------10--------------7----------------|
|----x---x8-----7-------------x----x8--------x----x8------------|
|----3-----------x?x8-------9---------------5-------------------|
|----------------5----------------------------------------------|

Outro:

|---------------------------------------------------------------|
|---------------------------------------------------------------|
|------------------------------------------------- -------------|
|----7~ -------2~ ------3~ -------------------------------------|
|----7~ -------2~ ------3~ -------------------------------------|
|----5~ -------0~ ------1~ -------------------------------------|





Comentarios del colaborador: cifraclub.terra.com

Calificar esta versión:
Aviso: Este fichero es trabajo propio de su transcriptor y representa su interpretación personal de la canción. El material contenido en esta página es para exclusivo uso privado, por lo que se prohibe su reproducción o retransmisión, así como su uso para fines comerciales.