1234, Plain White T´s (acordes)

Autor: blink-1-8-2 | 23917 visualizaciones

abmdg


intro 

-------------------------------------------------------------------|
-------------------------------------------------------------------|
-------------------------------------------------------------------|
---------------9-------7-------------------------------------------|
--10---7---10------10-------10-------------------------------------|
-------------------------------7---9---10-----10---12p10---10------|

Verso 1:
D
give me more lovin then i've ever had.
A
make it all better when i'm feelin sad.
Bm                                            A 
tell me that i'm special even when i know i'm not.
D
make me feel good when i hurt so bad.
A
barely gettin mad,
              Bm
im so glad i found you.
               A 
i love bein around you.
             G
you make it easy,

           A 
as easy as 1 2,[1 2 3 4.]


Coro:
             D         A       Bm          A    G
theres only one thing two do three words four you.
    D
i love you.
[i love you]

             D       A              Bm
theres only one way two say those three words
      A               G
and that's what i'll do.

    D
i love you.
[i love you]

Verso 2:
D
give me more lovin from the very start.
A
piece me back together when i fall apart.
Bm                                               A 
tell me things you never even tell your closest friends.
D
make me feel good when i hurt so bad.
A                                      Bm
best that i've had im so glad that i found you.
A
i love bein around you.

             G              A 
you make it easy as easy as 1 2,[1 2 3 4.]

Coro:
             D         A      Bm          A     G
theres only one thing two do three words four you.
   D
i love you.

             D      A              Bm
theres only one way two say those three words
    A                 G
and that's what i'll do.
     D
i love you.  i love you

solo
------------------------------------------------------------------------------|
------------------------------------------------------------------------------|
---------------------------------------------------------------------------7--|
-------------9-7-9--------------------9-7-9----------------9-7-9------7-9-8---|
-6s7--7-7-7--------7-7---6s7--7-7-7--------7-7---6s7--7-7-7-------7-7---------|
------------------------------------------------------------------------------|


----------------------------------------------------------------------------|
----------------------------------------------------------------------------|
------------------------------------------------------7---------------------|
------------9-7-9-----------------7--------9---7--7-6-----------------------|
-6s7--7-7-7-------7-7--6s7--7-7-7---10-8-7--7----5--------------------------|
----------------------------------------------------------------------------|

             G                A 
you make it easy, its easy as 1234

Single Strum chords:

            D          A      Bm         A      G
theres only one thing two do three words four you
   D
i love you

Pickup Rhythm

             D       A             Bm
theres only one way two say those three words
A                G
thats what ill do
   D
i love you





Calificar esta versión:
Aviso: Este fichero es trabajo propio de su transcriptor y representa su interpretación personal de la canción. El material contenido en esta página es para exclusivo uso privado, por lo que se prohibe su reproducción o retransmisión, así como su uso para fines comerciales.