Echoes, Pink Floyd (acordes)

Autor: jmydsotm | 15326 visualizaciones

aasosmbbbm7bmccsoscsosmeesus4fsosfsosmgsosgsosmgsossus4
H       hammer-on
		P	pull-off  
                       accented strum/pick
		B	bend			
		R	reverse bend
		UB	unison bend		
		S	slide [slide upto note = ]
		^	downstroke		
		v	upstroke
		*	staccato		
		~	vibrato
		x	muted note


   Poco a poco y suavemente?
 
   F#m
         B                                 B
E||---12-[14]------------------------|--12-[14]-------------------------|
B||----------------------------------|----------------------------------|
G||----------------------------------|----------------------------------|
D||----------------------------------|----------------------------------|
A||----------------------------------|----------------------------------|
E||----------------------------------|----------------------------------|
 
 
   C#m	

E||-----B|----------------------------|----B|-----------------------------|
B||---12-[14]--------------------12--|--12-[14]-------------------------|
G||----------------------------------|----------------------------------|
D||----------------------------------|----------------------------------|
A||----------------------------------|----------------------------------|
E||----------------------------------|----------------------------------|


   F#m
         B                                 B
E||---12-[14]------------------12--9-|--12-[14]------------12-----------|
B||----------------------------------|-----------------------------12---|
G||----------------------------------|----------------------------------|
D||----------------------------------|----------------------------------|
A||----------------------------------|----------------------------------|
E||----------------------------------|----------------------------------|


   C#m

E||-----B|----------------------------|---------------------------------|
B||---12-[14]---------12---B|--R------|---B|--------------B|--R---------|
G||----------------------11[13]11--9-|-11-[13]--------11[13]11--9-------|
D||----------------------------------|------------------------------9---|
A||----------------------------------|----------------------------------|
E||----------------------------------|----------------------------------|


   F#m

E||----------------------------------|----------------------------------|
B||----------------------------------|---H----------B|------------B|------|
G||------------------------------9---|--9-11------11[13]-9--11-11[13]-9-|
D||--------------------7--9--11------|----------------------------------|
A||----------------------------------|----------------------------------|
E||----------------------------------|----------------------------------|

   
   C#m

E||---B|------------------------------|---B|------------------------------|
B||-11-[13]-----------------------9--|-12-[14]--------------------------|
G||-----------------------------9----|----------------------------------|
D||----------------------------------|----------------------------------|
A||----------------------------------|----------------------------------|
E||----------------------------------|----------------------------------|


   Bbm7                               A 
        B                                 B                        B
E||--12-[13]-------------------------|-11-[12]------------------11-[12]-|
B||----------------------------------|----------------------------------|
G||----------------------------------|----------------------------------|
D||----------------------------------|----------------------------------|
A||----------------------------------|----------------------------------|
E||----------------------------------|----------------------------------|


   G#sus4                              G#

E||--11------------------------------|-------------R--------------------|
B||----------------------------------|----------[14]13------------------|
G||----------------------------------|-----------------13---S-----------|
D||----------------------------------|--------------------1311-10------|
A||----------------------------------|-----------------------------11---|
E||----------------------------------|----------------------------------|


   C#m                                 

E||----------------------------------|----------------------------------|
B||----------------------------------|----------------------P-----------|
G||------------11[13]11-9--11-11[13]~|~~~~~~~~---------11--9-8----------|
D||-11-------------------------------|---------------------------11-9---|
A||----------------------------------|----------------------------------|
E||----------------------------------|----------------------------------|




E||----------------------------------|-------------------9---------B|----|
B||----------------------------------|--------------B|------9--12-12[14]-|
G||----------------------------------|----------9-11[13]----------------|
D||-11-------------------------------|------11--------------------------|
A||----------------------------------|----------------------------------|
E||----------------------------------|----------------------------------|






   F#m                                

E||--------------------------P-------|----------------------------------|
B||------------------------10-9------|---S--S-------B|------------B|------|
G||-----------------------------11-9-|-11/1311---11[13]-9--11-11[13]-9-|
D||----------------------------------|----------------------------------|
A||----------------------------------|----------------------------------|
E||----------------------------------|----------------------------------|


   C#m

E||-------------------------B|--------|------B|---------------------------|
B||--------------B|-----12-12[14]-----|-12-12[14]------------------------|
G||------------11[13]------------9---|----------------------------------|
D||-11-------------------------------|----------------------------------|
A||----------------------------------|----------------------------------|
E||----------------------------------|----------------------------------|



   Bbm7                               A 
        B                                 B                        B
E||--12-[13]-------------------------|-11-[12]------------------11-[12]-|
B||----------------------------------|----------------------------------|
G||----------------------------------|----------------------------------|
D||----------------------------------|----------------------------------|
A||----------------------------------|----------------------------------|
E||----------------------------------|----------------------------------|


   G#sus4                              G#

E||--11------------------------------|-------------R--------------------|
B||----------------------------------|----------[14]13------------------|
G||----------------------------------|-----------------13---S-----------|
D||----------------------------------|--------------------1311-10------|
A||----------------------------------|-----------------------------11---|
E||----------------------------------|----------------------------------|



   C#m

E||----------------------------------||
B||----------------------------------||
G||----------------------------------||
D||-11-------------------------------||
A||----------------------------------||
E||----------------------------------||



Introduçión: F#m  C#m  F#m  C#m  F#m  C#m
       A#m  A  G#sus4  G#  C#m
       C#m  F#m  C#m  A#m  A  G#sus4  G#
C#m
Overhead the albatross
      G#m
Hangs motionless upon the air
    F#m
And deep beneath the rolling waves
   G#
In labyrinths of coral caves
    C#
The echo of a distant time
      G#m
Comes willowing across the sand
    F#m                                G#
And everything is green and submarine

    C
And no-one showed us to the land
    G#
And no-one knows the wheres or whys
    F#m
But something stirs and something tries
    G#              A 
And starts to climb towards the light

C#m  A  C#m  A  C#m  A  E  B  C

C#m
Strangers passing in the street
   G#m
By chance two separate glances meet
    F#m                        G#
And I am you and what I see is me
    C#m
And do I take you by the hand
    G#m
And lead you through the land
    F#m                           G#
And help me understand the best I can

    C#
And no-one calls us to move on
    G#
And no-one forces down our eyes
    F#m
And no-one speaks and no-one tries
    G#            A 
And no-one flies around the sun

C#m  A  C#m  A  C#m  A  E  B  C

Bm  F#m  Bm/D  Esus4  ...
C#m  G#m  E  F#  C#m  G#m  E  F#
C#m                           G#m
Cloudless everyday you fall upon my waking eyes
  F#m                       G#
Inviting and inciting me to rise
    C#m
And through the window in the wall
     G#m
Come streaming in on sunlight wings
  F#m                               G#
A million bright ambassadors of morning

    C#
And no-one sings me lullabies
    G#
And no-one makes me close my eyes
F#m
So I throw the windows wide
    G#          A 
And call to you across the sky

C#m  A  C#m  A  C#m  A  E  B  C ...
C#m  G#m  F#m  G# ...

Comentarios del colaborador: Ahi les dejo Echoes es muy buena.........

Calificar esta versión:
Aviso: Este fichero es trabajo propio de su transcriptor y representa su interpretación personal de la canción. El material contenido en esta página es para exclusivo uso privado, por lo que se prohibe su reproducción o retransmisión, así como su uso para fines comerciales.