Comfortably Numb (primer Solo), Pink Floyd (tablatura)

Autor: Michael soto | 40231 visualizaciones

Solo de comfortably numb

|-------------------------------|-------------------------|
|--19^^^--19bh(20)p19---17^^^---|--15--14--14-------------|
|-------------------------------|-------------14----------|
|-------------------------------|----------------14-------|
|-------------------------------|-------------------------|
|-------------------------------|-------------------------|

|--------------------------|------------------------------|
|---------19bh(20)p19---17-|--15--14----------------------|
|--------------------------|---------14-------------------|
|--12^^^-------------------|------------14---12--11--9--7-|
|--------------------------|------------------------------|
|--------------------------|------------------------------|

|---------------------------------|-----------------------|
|---------------------------------|------------7--7bh(8)--|
|--12^^^---11---9--7---9p7--9--7--|--9p7---7h9------------|
|---------------------------------|------9----------------|
|---------------------------------|-----------------------|
|---------------------------------|-----------------------|

|--15--14--12-----------------|---------------------------|
|-------------15--12----------|---------------------------|
|--------------------12-------|---------------------------|
|-----------------------12----|----10--9-----9h10p9--7----|
|-----------------------------|---------------------------|
|-----------------------------|---------------------------|
		   

Comentarios del colaborador: (www.acordesytablaturas.com)

Calificar esta versión:
Aviso: Este fichero es trabajo propio de su transcriptor y representa su interpretación personal de la canción. El material contenido en esta página es para exclusivo uso privado, por lo que se prohibe su reproducción o retransmisión, así como su uso para fines comerciales.