Another Brick In The Wall Parte 1, Pink Floyd (tablatura)

Autor: xxblackxpinkxx | 44830 visualizaciones

'Another brick in the wall (Parte 1): The Happiest Days of our lives', Pink Floyd
___________________________________________
*Por Seba A.
*Email msn por dudas o cometnarios: playing.the.angel_@hotmail.com
*buenos aires, argentina, 2007.
*Album: "The Wall 1 & 2"
*no se preocupen, esta 100% bien
*esto esta hecho mas que nada para gente de nivel intermedio para arriba, que controle bien los tiempos y sepa mas o menos cuando hacer cada cambio.
*Composición original por: Roger Waters (c)
___________________________________________

//Comienza con ruidos de helicopteros//

'In! Get IN! STAND! GET AWAY!'

e|----------------------------
B|----------------------------
G|----------------------------
D|--0-0-0-0-0-0-0-0-0-0-0-0-0-
A|5---------------------------
E|----------------------------

e|----------------------------
B|----------------------------
G|----------------------------
D|------------------------5---
A|5-5-5-3-3-3-1-1-1-0-0-0-----
E|------------------------3---

e|----------------------------
B|----------------------------
G|----------------------------
D|5----5-----5----------------
A|----------------------------
E|3----3-----3----------------



e|----------------------------
B|----------------------------
G|----------------------------
D|----------------------------
A|--0----------0---------0----
E|0----------0---------0------ 
                     '...When we grew up and went to school...

e|----------------------------
B|----------------------------
G|----------------------------
D|----------------------------
A|--0----------0------3br-0---
E|0----------0---------------- 
                    ...any way they could'



e|---------------------------------------------------------------------------|
B|---------------------------------------------------------------------------|
G|---------------------------------------------------------------------------|
D|---------------------------------------------------------------------------|
A|0-0-0-0-0-0-0-0-0-0-0-0-0-0-0-0-0-0-0-0-0-0-0-------------------------------
E|----------------------------------------------1-1-1-1-1-1-1-3-3-3-3-3-3-3-3--------- 
'By pouring their derision...            ...Upon anything we  did    

e|---------------------------------------------------------------------------|
B|---------------------------------------------------------------------------|
G|---------------------------------------------------------------------------|
D|---------------------------------------------------------------------------|
A|--------------------------------------------------------------3-3------------|
E|3-3-3-3-3-3-3-3-3-3-3-3-3-3-3-3-3-3-3-3-3-3-3-3-3-3-3-3-3-3-3-----5v-  
'And exposing every weakness...         ...However carefully hidden by the kids'




e|----------------------------------------------------------
B|----------------------------------------------------------
G|7--7--7-7-7--5--3-3-3-3-33-3--2-2-2-2-----------3-3-3-3-3-
D|---------------------------------------3--3--3------------
A|5--5--5-5-5--3--1-1-1-1-11-1--0-0-0-0-----------1-1-1-1-1-
E|---------------------------------------1--1--1------------
'BUT IN THE TOWN IT WAS WELL KNOWN...etc...'




e|--------------------
B|--------------------
G|----------3---3---3-
D|3--3--3---x---x---x-
A|x--x--x---1---1---1-
E|1--1--1-------------
'Ohhhh ohhh ohhh...'

e|--------------------
B|--------------------
G|----------3---3---3-
D|3--3--3---x---x---x-
A|x--x--x---1---1---1-
E|1--1--1-------------
'Ohhhh ohhh ohhh...'

e|--------------------
B|--------------------
G|----------3---3---3-
D|3--3--3---x---x---x-
A|x--x--x---1---1---1-
E|1--1--1-------------
'Ohhhh ohhh ohhh...'

e|------------------------------------
B|---------------------5555v----------
G|----------3---3---3--5555v----------
D|3--3--3---x---x---x--5555v----------
A|x--x--x---1---1---1--3333v----------
E|1--1--1-----------------------------
'Ohhhh ohhh ohhh OOOHHHH!

FIN DE LA PARTE 1: THE HAPPIEST DAYS OF OUR LIVES.

(También subí la parte 2 de esta cancion en TusAcordes.com, que tambien estña 100% bien, y también bí la versión de Korn, no olviden comentar y calificar esta canción con estrellas)
Calificar esta versión:
Aviso: Este fichero es trabajo propio de su transcriptor y representa su interpretación personal de la canción. El material contenido en esta página es para exclusivo uso privado, por lo que se prohibe su reproducción o retransmisión, así como su uso para fines comerciales.