Another Brick In The Wall 2, Pink Floyd (bajo)

Autor: Molotov | 24007 visualizaciones

Ola pues aqui pasando a dejarles esta rola q esta muy muy muy muy (creo q un muy mas) chida bueno aqui esta se q no es correcta pero la copie de un video de roger waters en el foro sol 2006

Intro...

G---------------------------------------------
D---------------------------------------------
A---------------------------------------------
E--4--4--4---4---3---1---0---3-----4-----4----

despues es esto ne la parte we don't need no education es asi

G------------------------------------------------------
D------------------------------------------------------
A------------------------------------------------------
E--3--0-3----3---5--3----3--0-3----3---5--3------------
si gustan ese cinco lo pueden reemplazar por un cero en A (la)

es asi en toda la rola a se me olvidaba en la parte donde cantan los niños es asi...

G-------------------------------------------
D-------------------------------------------
A------------------0-------------------0----
E--3--0-3---3--0---3---3--0-3---3--0---3----


esta muy sencilla pero creo q este es el segundo bajo aun asi se escucha muy apegado al original q tok Waters bueno me despido bye



Pink Floy es como Dios y el mierdaton ni a GUIA ESPIRITUAL le llega je je Lol XD (es encerio he)

Comentarios del colaborador: la fuente es de un video de roger waters en el foro G en el 2006

Calificar esta versión:
Aviso: Este fichero es trabajo propio de su transcriptor y representa su interpretación personal de la canción. El material contenido en esta página es para exclusivo uso privado, por lo que se prohibe su reproducción o retransmisión, así como su uso para fines comerciales.