Por Verte, Pignoise (acordes)

Autor: mangue | 24089 visualizaciones

amcfg


comiienzO

Punteo

e|-------------------------------------------
B|-------------------------------------------
G|---------------5---------------------------
D|--7-7-5-7-5-7---7-5--5---------------------
A|-----------------------7--7-5----5-7-5-----
E|------------------------------8--------8---

  -------------------------------------------
  -------------------------------------------
  ---------------5---------5-5-5-4-4-4-4-4---
  --7-7-5-7-5-7---7-5--5---------------------
  -----------------------7-------------------
  -------------------------------------------



Am               F              C        G
 A MENUDO ME RECUERDAN QUE DA IGUAL PERDERTE.
Am              F             C       G
 A MENUDO ME COMENTAN QUE NO SÉ CONOCERTE.
Am                 F             C          G
 PERO NADIE SE DA CUENTA QUE ME MUERO POR VERTE.
       Am-F-C-G
 ?POR VERTE, POR VERTE?

 Estribillo:
 


Am                              F
 POR VERTE DOY DE LECHES A LA SUERTE,
                    C
 FINGIRÉ QUE ME DIVIERTES,
                         G
 ME PARTO OTRA VEZ LOS DIENTES.
                        Am
 Y ES QUE ME MUERO POR VERTE.
                  F                          C
 VIVIRÉ CON EL PECADO Y ESTARÉ SIEMPRE A TU LADO.
                     G
 Y ES QUE SÓLO QUIERO?
                         Am
 Y ES QUE SÓLO QUIERO VERTE.
 


Am                F               C      G
 DEMASIADA COINCIDENCIA, NUNCA ESTÁS CONMIGO.
Am                  F              C       G
 TENGO CARGO DE CONCIENCIA POR HABERTE PERDIDO.
Am                  F                 C        G
 PERO ME ARMO DE PACIENCIA Y SIEMPRE SIGO POR VERTE.
       Am-F-C-G
 ?POR VERTE, POR VERTE?


Estribillo:
 

Am                              F
 POR VERTE DOY DE LECHES A LA SUERTE,
                    C
 FINGIRÉ QUE ME DIVIERTES,
                         G
 ME PARTO OTRA VEZ LOS DIENTES.
                        Am
 Y ES QUE ME MUERO POR VERTE.
                  F                          C
 VIVIRÉ CON EL PECADO Y ESTARÉ SIEMPRE A TU LADO.
                     G
 Y ES QUE SÓLO QUIERO?
                         Am
 Y ES QUE SÓLO QUIERO VERTE.
 


Am               F                     C
 TE DARÉ MI CORAZÓN Y HASTA PEDIRÉ PERDÓN.
                      G
 GRITARÉ DESDE UN RINCÓN UN POCO DE COMPASIÓN.
 [BIS]

Punteo

Estribillo x2





Calificar esta versión:
Aviso: Este fichero es trabajo propio de su transcriptor y representa su interpretación personal de la canción. El material contenido en esta página es para exclusivo uso privado, por lo que se prohibe su reproducción o retransmisión, así como su uso para fines comerciales.