Nada Podra Salvarte, Pignoise (tablatura)

Autor: Calico | 45049 visualizaciones



INTRO

La primera guitarra hace el punteo mientras que la
segunda toca los acordes siguientes

         C5       G5        A5       F5

E||------------------------------------------------||
B||------------------------------------------------||
G||----9----9----10----10----12----12----10----10--||
D||-10---10---10----10----10----10----10----10-----|| x 8
A||------------------------------------------------||
E||------------------------------------------------||

VERSO 1

Los siguientes acordes estan todos muteados pero la
2º guitarra en la segunda parte del verso hace este
pequeño riff

E||------------------------------------------------------------||
B||------------------------------------------------------------||
G||------------------------------------------------------------||
D||-----3-----3-----3-----3-------12-------12-------12-------12||
A||-5-5---5-5---5-5---5-5---10-10----10-10----10-10----10-10---||
E||------------------------------------------------------------||
Pm  . .   . .   . .   . .    .  .     .  .     .  .    .   .
E||--------------------------------------------------||
B||--------------------------------------------------||
G||--------------------------------------------------||
D||--------------------------------------------------||
A||-----7-----7-----7-----7-----3-----3-----5-----5--||
E||-5-5---5-5---5-5---5-5---1-1---1-1---3-3---3-3----||
Pm  . .   . .   . .   . .   . .   . .   . .   . .

C5                      G5
Ella es una linea recta En el mapa de tu vida
A5                         F5
Puedes tratar de olvidarla Pero no podras borrarla
C5                         G5
Ella es un ruido constante Cada dia Cada Instante
A5                     F5
Es una señal prohibida Es como el final de un dia

PRECORO

E||--------------||
B||-6-5-6-8-6-5--||
G||-5-5-5-5-5-5--||
D||--------------||
A||--------------||
E||--------------||

ESTRIBILLO

C5     G5             A5
Y nada nada prodra salvarte
F5               C5
Nada a lo que agarrarte
G5            A5     F5
Nada que no soñastes

VERSO 2

C5                           ||
Puedes escribir su nombre    || Solo
En una botella verde         ||  el
Y lanzarla al mar de siempre || Bajo
Como mas vas a engañarte     ||

La siguiente parte del verso se toca exactamente
igual que la ultima parte del verso 1

C5
Ella es como eso anillos
G5
Dando vueltas a un planeta
A5
Puedes darte por perdido
F5
Aora vive en tu cabeza

PRECORO

E||--------------||
B||-6-5-6-8-6-5--||
G||-5-5-5-5-5-5--||
D||--------------||
A||--------------||
E||--------------||

ESTRIBILLO

C5     G5             A5
Y nada nada prodra salvarte
F5               C5
Nada a lo que agarrarte       x 2
G5            A5     F5
Nada que no soñastes

INTERLUDIO

F5
Y aunque corras como un loco nunca podras parar
G5
Aunque grites aunque llores nadie te va escuxar
F5
Cualquier dia es un buen siempre te va esperar
A5 F5 G5
Ya Ademas

ESTRIBILLO

En el estribillo la segunda guitarra haora toca El
punteo de la intro

C5     G5             A5
Y nada nada prodra salvarte
F5               C5
Nada a lo que agarrarte       x 2
G5            A5     F5
Nada que no soñastes

INTERLUDIO 2

     C5       G5        A5       F5

E||------------------------------------------------||
B||------------------------------------------------|| Se repite
G||----9----9----10----10----12----12----10----10--|| hasta
D||-10---10---10----10----10----10----10----10-----|| que
A||------------------------------------------------|| acabe
E||------------------------------------------------|| La cancion
                                    F5
Y nada nada nada nada nada nada nada





Comentarios del colaborador: Lacuerda.net

Calificar esta versión:
Aviso: Este fichero es trabajo propio de su transcriptor y representa su interpretación personal de la canción. El material contenido en esta página es para exclusivo uso privado, por lo que se prohibe su reproducción o retransmisión, así como su uso para fines comerciales.