Buscando El Camino, Pignoise (acordes)

Autor: ziyki | 30644 visualizaciones

csosde


C#                 E                                       D
Cuantas veces te has sentido solo cuantas veces te han fallado los demas
C#                 E                                       D
  Porque yo nunca encage del todo si del mundo espero un poco mas
[luego va esto]
Con distorsion
1|------------------
2|------------------
3|----7--7--6-----
4|----7--7--6-----
5|----5--5--4-----
6|-----------------

Limpio esta parte [meti el corazon en un cajon, etc]
1|----------------------------
2|----------------------------
3|---6--9--7----------------- esto es x2 creo
4|---6--9--7-----------------
5|---4--7--5----------------
6|----------------------------

Estribillo
C#                                            E
Me perdí buscando el camino y no me encuentro en ningún sitio
D                                                  C#        D E
Luchando por cambiar las cosas en el mundo en el que vivimos
C#                                        E
Juntos barreremos las hojas de los árboles caídos
D                                          C#
Y empezar una vida nueva con todo lo que respiro

pm
1|-------------------------------------------------------
2|-------------------------------------------------------
3|-------------------------------------------------------
4|------7?11--x6------------------------------------
5|----9----------------9--------------------------------
6|-------------------------------------------------------

          Y volver a empezar               tratando de encontrar
2|-----------------------------------------------------------------------
3|--7----7----7---7----7-----7----9----9-----9---9----9----9-----
4|----7----7----7---7----7-----7----9----9-----9---9----9----9-----
5|------5----5--------5-----5----------7----7----------7----7--------
6|--------------------------------------------------------------------

                      Un poco                de verdad
1|--------------------------------5----5---5--5----5----------
2|----------------------------------6----6---6--6----6-------
3|---7----7----7--7----7----7------6---6-------6-----6---
4|-----7----7----7--7----7----7--------------------------------
5|-------5----5--------5----5--------------------------------
6|-------------------------------------------------------


D
Usando el corazo
E
Como la saolucion

Solo
1|------------------------------|------------------------
2|------------------------------|----------------------
3|------------9-7-6-7-6---------|---------6-4-6-7-6-4-------
4|----7-11-x3-------------9-7-6-|--4-7-x3-------------7-6?
5|-9----------------------------|-5--------------------------9
6|-------------------repite y termina con el 9 de la quinta cuerda

El resto es solo repetir el tema saludos
Y el final

3:11min
Son los acordes C# E D C#





Comentarios del colaborador: Aporte de leonardo desde lacuerda.net

Calificar esta versión:
Aviso: Este fichero es trabajo propio de su transcriptor y representa su interpretación personal de la canción. El material contenido en esta página es para exclusivo uso privado, por lo que se prohibe su reproducción o retransmisión, así como su uso para fines comerciales.