La Danza Chorra, Pibes Chorros (tablatura)

Autor: Anónimo | 23449 visualizaciones



Esta es la danza de los pibes chorrossss......

-----------
-----------
-----------     (X4)
----------- 
----3--6--3
--4--------

Pibes Chorrossssss........

---------------------------|-------------------------|
---------------------------|-------------------------|
---------------------------|-------------------------|
---------------------------|-------------------------|
--3-3--6-6--8-8--10-11-10--|-3-3--6-6--8-8-----------|
---------------------------|----------------3--4--3--|


---------------------------|-------------------------|
---------------------------|-------------------------|
---------------------------|-------------------------|
---------------------------|-------------------------|
--3-3--6-6--8-8--10-11-10--|-3-3--6-6--8-8--10-11-10-|
---------------------------|-------------------------|



----------------
---13--11--9--8-
-12-------------
----------------    (X4)
----------------
----------------



Espero que les guste, me  falta el ultimo pedazo ,
si  les sale por favor escribanme.... GRACIAS!!!





Calificar esta versión:
Aviso: Este fichero es trabajo propio de su transcriptor y representa su interpretación personal de la canción. El material contenido en esta página es para exclusivo uso privado, por lo que se prohibe su reproducción o retransmisión, así como su uso para fines comerciales.